Blink 182 - Carousel Chords & Tabs

 

Carousel Chords & Tabs

Blink 182 Chords & Tabs

Version: 8 Type: Tab 0 ratings
1 star 2 stars 3 stars 4 stars 5 stars
comments

Carousel Tab

rousel guitar version


this is carousel from blink182 THE GUITAR VERSION. i know the intro is
played on bass but im gonna put it on guitar then the wrest of the song
so here is is!


-------------------------------------------------------
-------------------------------------------------------
-------------------------------------------------------
-----4-4-5-7-5-4---------------------------------------
----5------------5---4-4-5-7-5-4------7-7-9-10-9-7-10--this
--------------------5------------5---7-----------------


-------------------------------------------------------
-------------------------------------------------------
-------------------------------------------------------
-------------------------------------------------------and this X2
------5-----5---5--------------------------------------
--5-5---5-5---5----------------------------------------


then this comes in... VERY DISTORTED

-------------------------
-------------------------
----5555-----------------
----5555-5555--7777--3333
----3333-5555--7777--3333
---------3333--5555--1111


-----------------------------------------
-----------------------------------------
-----------------------------------------
----4-4-4-4--2-2-2-2--4-4-4-4--0-0-0-0-X2
-----------------------------------------
-----------------------------------------

lil guitar thingy.....
----------------------------------------------------
----------------------------------------------------
--------11-11-11-11-11-11-11-11-/14/-9-9-9-9-9-9-9-9
----------------------------------------------------
----------------------------------------------------
----------------------------------------------------


--------------------------------------------------
--------------------------------------------------
----11-11-11-11-11-11-11-11--14-14-12-12-11-11-9-9
--------------------------------------------------
--------------------------------------------------
--------------------------------------------------
[ Tab from: http://www.guitartabs.cc/tabs/b/blink_182/carousel_tab_ver_8.html ]
-------------------------------------------------------------------
-------------------------------------------------------------------
---11-11-11-11-11-11-11-11-/14/-9-9-9-9-9-9-9-9---7-7-7-7-7-7-7-7-7
-------------------------------------------------------------------
-------------------------------------------------------------------
-------------------------------------------------------------------


--------------------
--------------------
-----11-11--9-9--7-7
--------------------
--------------------
--------------------



play this while tom is singing


-------------------------
-------------------------
----5555-----------------
----5555-5555--7777--3333
----3333-5555--7777--3333
---------3333--5555--1111

not a motion from the telephone...
--------------------------------------------------------------
--------------------------------------------------------------
---11---11---11---11------9---9---9---9------11-----11------11
------9----9----9----9--7---7---7---7----9-9----9-9-----9-9---
--------------------------------------------------------------
--------------------------------------------------------------


i know, not a reason why...
-----------------------
-----------------------
-------7-7---7-7---7-7-
-----------5-----5----5
-----------------------
-----------------------


just you wait and see.....
-------------
-------------
--5-7-9-7----
--5-7-9-7--X4
--3-5-7-5----
-------------

then back to little guitar thingy and back to the thing where tom is 
singing then u go back to what i just wrote... the Just You Wait And 
See.....

then when tom is like... a tank of gas is a treasure to me, play this 
RIGHT when hes done singing this part...
_________
DISTORTED
----------------------------------------------------------------------
----------------------------------------------------------------------
----------------------------------------------------------------------
------4-5-7-5-4-------------------------------------------------------
----5-----------5---4-5-7-5-4------6-7-9-7-6------2-3-5-3-2----Xlike-5
------------------5-----------5--7-----------7--3-----------3---------


now back to the, just you wait and see and your done!!!!!

this is very very very perfect i think anyway.

questions or comments email me at SauL LS Yes@aol.com



BLINK-182 IS THE BEST PUNK ROCK BAND ON THE FACE OF THE EARTH!!!!!!

sorry this is kind screwed up but youll figure it out
Comments