Blink 182 - Carousel Chords & Tabs

 

Carousel Chords & Tabs

Blink 182 Chords & Tabs

Version: 19 Type: Tab 0 ratings
1 star 2 stars 3 stars 4 stars 5 stars
comments

Carousel Tab

   
Band:  Blink 182
Album: Cheshire Cat
Song:  Carousel

h hammer on
p pull off
/ slide (or chord strum)
~ vibrato
x mute

Chord Diagrams
X|D5 A5 B5 G5
-+----------
e|x  x  x  x
B|x  x  x  x
G|7  2  4  x
D|7  2  4  5
A|5  0  2  5
E|x  x  x  3

Tempo:	137

INTRO 1 [0:00]
Guitar 1: (Clean) x2
  e|--------------------------------------------------------------
  B|--------------------------------------------------------------
  G|--------------------------------------------------------------
  D|-4-4-4-2-2-2-0--4-4-4-2-2-2-0--2-2-2-0-0-0--------------------
  A|-------------------------------------------4--4-0-0-0-2-2-2-4-
  E|--------------------------------------------------------------

  ----------------------------------------------------------------
  ----------------------------------------------------------------
  ----------------------------------------------------------------
  ---2-2-2-0-0-0----2-2-2-0-0-0----2-2-2-0-0-0----2-2-2-0-0-0-----
  ---------------4--------------4--------------2--------------2---
  ----------------------------------------------------------------

Guitar 2: (fuzzy) x2
  ----------------------------------------------------------------
  ----------------------------------------------------------------
  ----------------------------------------------------------------
  ---------------------------------0--2--2-2-2-0-0-0--------------
  ------------------------------------------------------4---------
  ------------------------------------------------------------2---

  ----------------------------------------------------------------
  ----------------------------------------------------------------
  ----------------------------------------------------------------
  ---------------------------------0--2--2-2-2-0-0-0--------------
  -------------------------------------------------------4----2---
  ----------------------------------------------------------------

INTRO 2 [0:28]
Guitar 1: (clean) x2
  --------------------------------------------------------------------
  --------------------------------------------------------------------
  --------------------------------------------------------------------
  ---4-4-5-7-5-4------------------------------------------------------
  -5-------------5-----4-4-5-7-5-4------7-7-9-10-10-9-9---5-5--5-5--5-
  ------------------5--------------5--7------------------3----3----3--

INTRO 3 [0:42]
Guitar 1: (clean) x4
  D5xxx/A5xxx/B5xxx/G5xxx/

********
**THEN**
********
Guitar 1: (over drive) x2
  D5////////A5////////
  B5////////G5////////
[ Tab from: http://www.guitartabs.cc/tabs/b/blink_182/carousel_tab_ver_19.html ]
INTRO 4 [1:05]
Guitar 1: (clean) x2
  -----------------------------------------------------------------
  -----------------------------------------------------------------
  -----------------------------------------------------------------
  4-4-4-4-4-4-4-4-2-2-2-2-2-2-2-2-4-4-4-4-4-4-4-4-0-0-2-2-0-0------
  ------------------------------------------------------------4-4--
  -----------------------------------------------------------------

Guitar 2: (fuzzy) x2
  -----------------------------------------
  -----------------------------------------
  -----------------------------------------
  --0~~~~-----2-0-0-00-00--2-0-----0-------
  -------------------------------4---------
  -----------------------------------------

PRE-VERSE [1:15]
Guitar 1: (clean)
  ---------------------------|---------------------------
  ---------------------------|---------------------------
  ---------------------------|---------------------------
  -4--4--4h5p4--2--2-2--2--2-|-4--4--4h5p4--7-7--5--4--2-
  ---------------------------|---------------------------
  ---------------------------|---------------------------

  ---------------------------|---------------------------
  ---------------------------|---------------------------
  ---------------------------|---------------------------
  -4--4--4h5p4--2--2-2--2--2-|-0-0-2h4p2-2-2h4p2-2-2h4p0-
  ---------------------------|---------------------------
  ---------------------------|---------------------------

VERSE [1:25]
Guitar 1: (clean) x2
****************************************************************
**DON'T START GUITAR 1 UNTIL GUITAR 2 GOES THROUGH once FIRST**
****************************************************************
  -------------------------------------------------------------------
  -------------------------------------------------------------------
  11-----11-----11---9----9----9/---11----11----11--12------12-----12--
  --12-12--12-12--12--7-7--7-7---7/---9-9---9-9---9---10-10---10-10-10
  -------------------------------------------------------------------
  -------------------------------------------------------------------

Guitar 2: (fuzzy) x3
  D5xxx/A5xxx/B5xxx/G5xxx/


CHORUS [1:44]
Guitar 2: (clean) x4
******************************************************
**STRUM PATTERN CHANGES ON "G5" THE LAST TIME THOUGH**
******************************************************
  D5////////A5////////B5////////G5////////


PRE-VERSE [2:02]

VERSE [2:12]

CHORUS (+2x more)

SOLO [2:30]
Guitar 1: (clean) x4
  -----------------------------------------------------
  -----------------------------------------------------
  -----------------------------------------------------
  ---4-5-7-5-4-----------------------------------------
  -5--------------4-5-7-5-4----6-7-9-7-6----2-3-5-3-2--
  --------------5------------7------------3------------

Guitar 2: (fuzzy) x4
  D5xxx/A5xxx/Bxxx5Gxxx5

CHORUS [2:48]

END
Guitar 1 (clean) & 2 (fuzzy)
  D5
If anyone disagrees with this tab PLEASE email me RPMSJ99@aol.com. Thanx
Comments