Blink 182 - Carousel Chords & Tabs

 

Carousel Chords & Tabs

Blink 182 Chords & Tabs

Version: 14 Type: Tab 0 ratings
1 star 2 stars 3 stars 4 stars 5 stars
comments

Carousel Tab

   
Tabbed by: Andrew Rimar
Email : badandygp@hotmail.com

This intro is carousel off of Chesire Cat. This is only Guitar 1 part. There is a Guitar 
2 playing power chords behind this. 

Riff A

-----------------------------------
-----------------------------------
-----------------------------------
--7-7-7-5-5-5-4-4-7-7-7-5-5-5-4-4--
-----------------------------------
-----------------------------------


-------------------------------------
-------------------------------------
-------------------------------------
--4-4-4-2-2-2-0-0-------0-0-0-2-2-2--
------------------4-4-4--------------
-------------------------------------

[ Tab from: http://www.guitartabs.cc/tabs/b/blink_182/carousel_tab_ver_14.html ]
-----------------------------------
-----------------------------------
-----------------------------------
--5-5-5-4-4-4-2-2-5-5-5-4-4-4-2-2--
-----------------------------------
-----------------------------------


-----------------------------------
-----------------------------------
-----------------------------------
--0-0-0-0-0-0-0-0-0-0-0-0-0-0-0----
--------------------------------4--
-----------------------------------

     Repeat Riff A

Riff B
 
-----------------------------------
-----------------------------------
-----------------------------------
----4-4-5-7-5-4--------------------
--5-------------5---4-4-5-7-5-4----
------------------5-------------5--

-----------------------------------
-----------------------------------
-----------------------------------
----2-2-4-5-4-2-4------------------
--2-----------------5-5---5---5----
------------------3-----3---3---3--

     Repeat Riff B 

And thats the intro.
Comments