Blink 182 - Carousel Chords & Tabs

 

Carousel Chords & Tabs

Blink 182 Chords & Tabs

Version: 11 Type: Tab 0 ratings
1 star 2 stars 3 stars 4 stars 5 stars
comments

Carousel Tab

             Carousel(Live Version)

Pre-Intro(clean tone)
3]-7---|-7-------|
4]-7---|-7-7-9-5-|
5]-5---|-5-7-9-5-|
6]-----|---5-7-3-|
  |
(fade in)

Intro(dist)
3]-7-------|----------|
4]-7-7-9-5-|-55555555-|
5]-5-7-9-5-|-55555555-|
6]---5-7-3-|-33333333-|

Interlude(1)(part 1)                          (part 2)
4]---------------------------------------------4-2-4-7-5-4-2
5]-4-5-(5)-4-5-7-5-4-5-(5)-4-5-(7)-4-5-7-5-4-0/-------------

4]-4-2-4\-0-(0)-4-0-(0)-4-0-(0)-(4)-0-(0)-7\-5-(0)-4-0-(0)-|
5]---------------------------------------------------------|
[ Tab from: http://www.guitartabs.cc/tabs/b/blink_182/carousel_tab_ver_11.html ]
Verse(1)   Chorus
3]-7-------|-7-9---------|
4]-7-7-9-5-|-7-9-7-(p)-5-| -(p,stands for palse)
5]-5-7-9-5-|-5-7-7-(p)-5-|
6]---5-7-3-|-----5-(p)-3-|
                
Inter.(part 2)

Verse(2)

Chorus
3]-(7)-| -(at end of chorus let chord on left ring 
4]-(7)-|   through)
5]-(5)-|  
                                        (ending one)
Interlude(2)                                 |
3]-7-------------------------------------------------------|
4]-7-4-5-7-5-4-0-7-------------9-------------5-------------|
5]-5-------------7-4-5-7-5-4-0-9-6-7-9-7-6-0-5-2-3-5-3-2-0-|
6]---------------5-------------7-------------3-------------|
Interlude(2)(ending two)
4]-55555555-|
5]-55555555-|
6]-33333333-|

Chorus
3]-(7)-| -(at end of chorus let chord on left ring 
4]-(7)-|   through)
5]-(5)-|
Comments