Blink 182 - Carousel Chords & Tabs

 

Carousel Chords & Tabs

Blink 182 Chords & Tabs

Version: 10 Type: Tab 0 ratings
1 star 2 stars 3 stars 4 stars 5 stars
comments

Carousel Tab

   
intro 

2x
E|--------------------------------------
B|--------------------------------------
G|-7------------------------------------
D|-7---------------4h5-555-444----------
A|-5-555555555555--------------77777777-
E|---p.m.........--------------p.m.....-

E|------------------------------------------|
B|------------------------------------------|
G|------------------------------------------|  
D|-9----------------------------------------|
A|-9--------------7h9-101010-99-77-55555555-|
E|-7-777777777777-----p.m..................-|
     p.m.........

E|-----|
B|-----|
G|-----|
D|-----|
A|-4h5-|
E|-----|

bass solo

2x
E|-----------------------------------|
B|-----------------------------------|
G|-----------------------------------|
D|-777777-999999-111111111111-777777-|
A|-----------------------------------|
E|-----------------------------------|

2x
E|-------------------------------------|
B|-------------------------------------|
G|-77777777----------------------------|
D|-77777777-77777777-99999999-55555555-|
A|-55555555-77777777-99999999-55555555-|
E|----------55555555-77777777-33333333-|

E|--------------------------------------------|
B|--------------------------------------------|
G|--------------------------------------------|
D|--------------------------------------------|
A|-5-4-555555-77-555555-4h5-4-555555-77-55555-|
E|--------------------------------------------|
[ Tab from: http://www.guitartabs.cc/tabs/b/blink_182/carousel_tab_ver_10.html ]
solo 1
E|-------------------------------------------------------|
B|-------------------------------------------------------|
G|-------------------------------------------------------|
D|-44444-5-4-22222-44444-5-4-77-55-44-22-44444-5-4-22222-|
A|-------------------------------------------------------|
E|-------------------------------------------------------|

E|-----------------------------|
B|-----------------------------|
G|-----------------------------|
D|-4p0-00-5p0-4h5-4-00-5-4p0-0-|
A|-----------------------------|
E|-----------------------------|

verse 4x
E|-----------------------------|
B|-----------------------------|
G|-777777----------------------|
D|-777777-777777-999999-555555-|
A|-555555-777777-999999-555555-|
E|--------555555-777777-333333-|

chorus 3x
E|-----------------------------|
B|-----------------------------|
G|-777777-999999---------------|
D|-777777-999999-777777-555555-|
A|-555555-777777-777777-555555-|
E|---------------555555-333333-|
then
E|---------------------------|
B|---------------------------|
G|-777777-999999-------------|
D|-777777-999999-7----555555-|
A|-555555-777777-7----555555-|
E|---------------5----333333-|

solo 1

verse 2x

solo 2 4x
E|------------------------------------|
B|------------------------------------|
G|------------------------------------|
D|--45754-----------------------------|
A|-5-----5---45754----67976----23532--|
E|----------5-----5--7-----7--3-----3-|

chorus

end on
E|---|
B|---|
G|-7-|
D|-7-|
A|-5-|
E|---|

listen to the song if you get confused
Comments