Blink 182 - Carousel Live Chords & Tabs

 

Carousel Live Chords & Tabs

Blink 182 Chords & Tabs

Version: 1 Type: Bass Tab 0 ratings
1 star 2 stars 3 stars 4 stars 5 stars
comments

Carousel Live Bass Tab

Blink 182 - Carousel Live
Tabbed by - Shavedogg
This is what Mark plays check out the videos if you wanna see

G---11-11-12-14-12-11---|--6-6-7-9-7-6--|--7-7-9-11-9-7-9-----7---7-7|
D-0------------------12-|-7-----------7-|-9---------------5-5--5-5-5-|
A-----------------------|---------------|----------------------------|
E-----------------------|---------------|----------------------------|


G---11-11-12-14-12-11---|--6-6-7-9-7-6--|--7-7-9-11-9-7-9-|-7777777--|
D--------------------12-|-7-----------7-|-9---------------|-5555555--|
A-----------------------|---------------|-----------------|----------|
E-----------------------|---------------|-----------------|----------|
[ Tab from: http://www.guitartabs.cc/tabs/b/blink_182/carousel_live_btab.html ]
G-7-11-11-11-11-11-|-11-9-9-9-9-9-|-9-11-11-11-11-11-|-11-7-7-7-7-7--|
D-5--9--9--9--9--9-|--9-7-7-7-7-7-|-7--9--9--9--9--9-|--9-5-5-5-5-5--|
A------------------|--------------|------------------|---------------|
E------------------|--------------|------------------|---------------|

G-7-11-11-11-11-11-|-11-9-9-9-9-9-|-9-11-11-11-11-11-|-11-7-7-7-7-7--|
D-5--9--9--9--9--9-|--9-7-7-7-7-7-|-7--9--9--9--9--9-|--9-5-5-5-5-5--|
A------------------|--------------|------------------|---------------|
E------------------|--------------|------------------|---------------|

G-7-11-11-11-11-11-|-11-9-9-9-9-9-|-9-11-11-11-11-11-|-11-7-7-7-7-7--|
D-5--9--9--9--9--9-|--9-7-7-7-7-7-|-7--9--9--9--9--9-|--9-5-5-5-5-5--|
A------------------|--------------|------------------|---------------|
E------------------|--------------|------------------|---------------|

G-7-11-11-11-11-11-|-11-9-9-9-9-9-|-9-11-11-11-11-11-|-11-7-7-7-7-7--|
D-5--9--9--9--9--9-|--9-7-7-7-7-7-|-7--9--9--9--9--9-|--9-5-5-5-5-5--|
A------------------|--------------|------------------|---------------|
E------------------|--------------|------------------|---------------|
Comments