Blink 182 - Carousel Chords & Tabs

 

Carousel Chords & Tabs

Blink 182 Chords & Tabs

Version: 4 Type: Bass Tab 0 ratings
1 star 2 stars 3 stars 4 stars 5 stars
comments

Carousel Bass Tab

Blink-182
Song - Carousel
This is a Bass Tab!!
Submitted By: Blinker27

here is a good tab for carousel


INTRO
----11-11-12-14-12-11-----------------------------
-12-------------------12------11-11-12-14-12-11---
---------------------------12-------------------12
--------------------------------------------------



---9-9-11-12-11-9-12------7-----7---7
-9--------------------5-5---5-5---5--
-------------------------------------
-------------------------------------



----11-11-12-14-12-11-----------------------------
-12-------------------12------11-11-12-14-12-11---
---------------------------12-------------------12
--------------------------------------------------



---9-9-11-12-12-11-11--77777777
-9---------------------55555555
-------------------------------
-------------------------------

INTRO Part Two      X4
11-11-11-11--999999-11-11-11-11-11-11--777777
-0--0--0--0--777777--9--9--9--9--9--9--555555
---------------------------------------------
---------------------------------------------


INTRO Part Three
-------------------------------------------------
-------------------------------------------------
-5-5-5-5-5-5-5-5---------------------------------
-----------------5-5-5-5-5-5-5-5--7-7-7-7-7-7-7-7

INTRO Part Three coninued...
---------------
---------------
---------------
3-3-3-3-3-3-3-3

[ Tab from: http://www.guitartabs.cc/tabs/b/blink_182/carousel_btab_ver_4.html ]
the guitar comes in and makes some slow notes
while the bass does this...

11-11-11-11--9-9-9-9--11-11-11-11--7-7-7-7
------------------------------------------
------------------------------------------  X2
------------------------------------------


Riff One   X2
--------------------------------------------
--------------------------------------------
55555555------------------------------------
--------55555555-77777777-33333333--77-55-33


Riff Two   X2
----------------------------------
----------------------------------
55555555--------------------------
--------55555555-77777777-33333333


Chorus     X3... i think...
-------------------------------
-------------------------------
5-5-5-5-5-5-5-5-7-7-7-7-7-7-7-7
-------------------------------


-------------------------------------------
-------------------------------------------
9-9-9-9-9-9-9-9--10-10-10-10-10-10-10-10-10
-------------------------------------------

Go back to Riff One, then play riff two...
then... play chorus... and here comes the:


Small solo X2
11-11-11-11-9-9-9-9-11-11-11-11--7-7-7-7
----------------------------------------
----------------------------------------
----------------------------------------

Guitar solo comes in then you play
Riff One and chorus and your finished with the song.

question or comments email me at BLinkeR 37@aol.com
 
Comments