Blink 182 - Carousel Chords & Tabs

 

Carousel Chords & Tabs

Blink 182 Chords & Tabs

Version: 3 Type: Bass Tab 0 ratings
1 star 2 stars 3 stars 4 stars 5 stars
comments

Carousel Bass Tab

Band: blink 182
Song: Carousel
Album: Cheshire Cat
This is the absolutely correct intro...the verse and chorus should be right
too...if by chance you do find a flaw with the intro,email me

Intro: (this sounds great,but it's kinda long)
G:-14-14-14--12-12-12--11-11-
D:-0--0--0---0--0--0---0--0--
A:---------------------------  x2
E:---------------------------
then...
G:-6-6-6--7-7-7--9-9-
D:-7-7-7--7-7-7--7-7-
A:-------------------    x2
E:-------------------
then...
G:-12-12-12--11-11-11--9-9-9
D:-9--9--9---9--9--9---9-9-9
A:--------------------------  x2
E:--------------------------
then..
G:-7--7--7--7--7---
D:-5--5--5--5--5---
A:-----------------   x1
E:-----------------
then...
G:---11-11-12-14-12-11-------------------------9-9-11-12-11-9--
D:-12---------------------11-11-12-14-12-11--9-----------------
A:---------------------12--------------------------------------
E:-------------------------------------------------------------

G:--7-7-7-7-7-7-
D:-5-5-5-5-5-5--
A:--------------  x2
E:--------------

then... (1:04)
G:-11-11-11-11-11-11--9--9--9--9--9--9--11-11-11-11-11-11--9-7-7-7-7-7-7-7-
D:-0--0--0--0--0--0---7--7--7--7--7--7---9--9--9--9--9--9---5-5-5-5-5-5-5--
A:------------------------------------------------------------------------
E:------------------------------------------------------------------------
There is a certain rhythm to this part, but it's easy to figure out.

then... (1:14)
[ Tab from: http://www.guitartabs.cc/tabs/b/blink_182/carousel_btab_ver_3.html ]
G:---------------------------------------------------------------*-------------------------------
D:-4-4-4-4-4-4-4-4-2-2-2-2-2-2-2-2-4-4-4-4-4-4-4-4-7-7-5-4-2-----*0--0-4-0-7-5-0--0--0-4-0-7-5-4-0-
A:---------------------------------------------------------------*-------------------------------
E:---------------------------------------------------------------*-------------------------------

Now the verse: (Easy)
G:-------------------------------------------------------------
D:-------------------------------------------------------------
A:-5-5-5-5-5-5-5-----------------------------------------------
E:---------------5-5-5-5-5-5-5--7-7-7-7-7-7-7--3-3-3-3-3-3-3---

Chorus: once again this fill is fairly accurate
G:--------------------------------------------------
D:--------------------------------------------------
A:-5-5-5-5-5-5-7-7-7-7-7-7--------------------------
E:-------------------------5-5-5-9-7-5--3-3-3-7-5-3-

Bridge:
G:----------------------------------
D:----------------------------------
A:-5---------5----------------------
E:---5--7--3---5--7-7-7-7--3-3-3-3--

That's pretty much the whole song...

Here's some extras

This is supposed to be played on the guitar but who cares.
G:-------------------------------------------------------------------------------------------
D:-4--4--4-5-4-2-2-2-2--4--4-4-5-4-7-7-5-4-2--4--4-4-5-4-2-2-2-2-0-0-4-0-7-5-0--0--0-4-0-7-5-4-0
A:-------------------------------------------------------------------------------------------
E:-------------------------------------------------------------------------------------------

Changes by Keith, bassist for opium holiday, thanks to Matt Nielson for the 
original version.
Comments