Blink 182 - Carousel Chords & Tabs

 

Carousel Chords & Tabs

Blink 182 Chords & Tabs

Version: 14 Type: Bass Tab 0 ratings
1 star 2 stars 3 stars 4 stars 5 stars
comments

Carousel Bass Tab

   
Standard Tunning
E,A,D,G
R:Ring
\:Slide
H:hold
HR:Hold and let Ring
*:Mute

Intro
G|---11-11-12-14-12-11----6-6-7-9-7-6---9-9-11-12-11-9-11-
D|--0R----------------12\7HR---------7\9HR----------------
A|--------------------------------------------------------
E|--------------------------------------------------------

G|-----7-----7---7----------------------------------------
D|-5-5---5-5---5------------------------------------------
A|--------------------------------------------------------
E|--------------------------------------------------------

G|---11-12-14-12-11-----6-6-7-9-7-6---9-9-11-12-12-11-11--
D|--0R-------------12\7HR----------7\9Hr------------------
A|--------------------------------------------------------
E|--------------------------------------------------------

Strum
G|-7-7-7-7-7-7-7----------------------------------------
D|-5-5-5-5-5-5-5----------------------------------------
A|------------------------------------------------------
E|------------------------------------------------------
[ Tab from: http://www.guitartabs.cc/tabs/b/blink_182/carousel_btab_ver_14.html ]
Strum These Chords you'll get the Rythem
G|11------9--------11------7----------------------------
D|0-------7--------9-------5----------------------------
A|------------------------------------------------------
E|------------------------------------------------------

Verse 
G|------------------------------------------------------
D|------------------------------------------------------
A|-55555555---------------------------------------------
E|---------55555555-77777777-33333333-------------------

Chours
G|------------------------------------------------------
D|------------------------------------------------------
A|-55555555-77777777------------------------------------
E|-------------------55555555-33333333------------------

Bridge
G|------------------------------------------------------
D|------------------------------------------------------
A|-5----------------------------------------------------
E|---5-7-3----------------------------------------------

Order of song
Intro
Strum
Verse
Chorus
Verse
Strum
Bridge
Chorus
And thats the Whole song!!!!
Comments