Blink 182 - Carousel Chords & Tabs

 

Carousel Chords & Tabs

Blink 182 Chords & Tabs

Version: 10 Type: Bass Tab 0 ratings
1 star 2 stars 3 stars 4 stars 5 stars
comments

Carousel Bass Tab

Buddha - The Mark, Tom, and Travis show - Cheshire cat
Tabbed by Josh (sumpunk87@expn.com)

Intro
G-----11-12-14-12-11-----------------------------8-9-11-9-8----------------
D-12-----------------12----11-12-1412-11------9------------9-12-12-12-12--
A-----------------------12----------------12------------------10-10-10-10-x2
E--------------------------------------------------------------------------
[ Tab from: http://www.guitartabs.cc/tabs/b/blink_182/carousel_btab_ver_10.html ]
Intro riff (hardest part of the song, but still real easy)
G-11-11-11-11-11--9-9-9-9-9-11-11-11-11-11---------------
D-0--0--0--0--0---7-7-7-7-7---9--9--9--9--9-12-12-12-12---
A-------------------------------------------10-10-10-10---
E---------------------------------------------------------

Verse 
G----------------------------------
D----------------------------------
A-5-5-5-5---------2-2-2-2----------
E---------5-5-5-5---------3-3-3-3

Chorus
G-----------------------------------
D-----------------------------------
A-5-5-5-5-7-7-7-7-------------------
E------------------5-5-5-5-3-3-3-3

Interlude- (same as intro riff, but an octave higher)
G-11-11-11-11-11--9-9-9-9-911-11-11-11-11--7-7-7-7-7-
D--0--0--0--0--0--7-7-7-7-7--9--9--9--9--9--5-5-5-5-5-
A-----------------------------------------------------
E-----------------------------------------------------
Comments