Blink 182 - Cacophony Chords & Tabs

 

Cacophony Chords & Tabs

Blink 182 Chords & Tabs

Version: 8 Type: Tab 0 ratings
1 star 2 stars 3 stars 4 stars 5 stars
comments

Cacophony Tab

Tabbed by n2sed_182@yahoo.com

Cacohony
cheshire Cat
1994
Bass Tab

Mark Hoppus: Bass Guitar/Vocals
Tom Delonge: Rhythm Guitar
Scott Raynor Drums

Intro Part 1:

Mark

G|-----------------------------9--------------|
D|------10---------10-------------------10----|
A|--7-7----7-10-10----10-12-12---12-8-8----8--|
E|--------------------------------------------|


Intro Part 2:

Mark

G|--------------------------9-9h10p9-----------|
D|------10---------10--------------------10----|
A|--7-7----7-10-10----10-12----------8-8----8--|
E|---------------------------------------------|


Tom

e|----------------------------------------------|
B|----------------6-6\5-------------------------|
G|--5-5/7-5-5-5/7-------5--5-5/7-5-5/7-5-5\4-5--|
D|----------------------------------------------|
A|----------------------------------------------|
E|----------------------------------------------|


Intro Part 3:

Mark

G|-----------------------------------|
D|-----------------------------------|
A|-----------------------------------|
e|--5(x8)-1(x8)-5(x8)-8(x8)-1(x8)-1--|


Tom

e|------------------------------------|
B|------------------------------------|
G|--------------------5(x8)-----------|
D|--7(x8)-3(x8)-7(x8)-5(x8)-3(x8)-3---|
A|--7(x8)-3(x8)-7(x8)-3(x8)-3(x8)-3---|
E|--5(x8)-1(x8)-5(x8)-------1(x8)-1---|


Intro Part 4: (Same as Intro Part 2)

Verses 1&2: (when you talk about tomorrow/words like forever)

Mark

G|--------------------------9-9h10p9-----------|
D|------10---------10--------------------10----|
A|--7-7----7-10-10----10-12----------8-8----8--|
E|---------------------------------------------|

Chorus: (Sometimes I don't feel the same way as you feel)

Mark

G|-----------------------------------|
D|-----------------------------------|
A|-----------------------------------|
e|--5(x8)-1(x8)-5(x8)-8(x8)-1(x8)-1--|


Tom

e|------------------------------------|
B|------------------------------------|
G|--------------------5(x8)-----------|
D|--7(x8)-3(x8)-7(x8)-5(x8)-3(x8)-3---|
A|--7(x8)-3(x8)-7(x8)-3(x8)-3(x8)-3---|
E|--5(x8)-1(x8)-5(x8)-------1(x8)-1---|

Interlude 1: (Beat Changes from mellow to fast-punk)

Mark

G|---------------------------|
D|---------------------------|
A|---------------------------|
E|--8(x8)-5(x8)-0(x8)-1(x8)--|


Tom

e|-----------------------------|
B|-----------------------------|
G|--5(x8)-5(x8)-5(x8)----------|
D|--5(x8)-5(x8)-2(x8)-3(x8)----|
A|--3(x8)-x-----3(x8)-3(x8)----|
E|--------5(x8)-------1(x8)----|


Verse 3: (I think of all the special..)

[ Tab from: http://www.guitartabs.cc/tabs/b/blink_182/cacophony_tab_ver_8.html ]
Mark

G|---------------------|
D|---------------------|
A|---------------------|
E|--8(x8)-5(x8)-1(x8)--|


Tom

e|-----------------------|
B|-----------------------|
G|--5(x8)----------------|
D|--5(x8)-7(x8)-3(x8)----|
A|--3(x8)-7(x8)-3(x8)----|
E|--------5(x8)-1(x8)----|


Extra:

Mark

G|-----------------------|
D|-----------------------|
A|-----------------------|
E|--3-3(x2)-8------------|


Tom

e|------------------------|
B|--4-4(x2)-5-------------|
G|------------------------|
D|------------------------|
A|------------------------|
E|------------------------|

Interlude 2: (Same as Interlude 1)

Bridge:(Will there ever be someone../If I can make a sound)

Mark

G|----------------------------|
D|----------------------------|
A|--7(x8)-8(x8)-------10(x8)--|
E|--------------8(x8)---------|

G|----------------------------|
D|----------------------------|
A|--7(x8)-8(x8)---------------|
E|--------------8(x16)--------|

Tom

e|-------------------------------|
B|-------------------------------|
G|--9(x8)-10(x8)--------12(x8)---|
D|--9(x8)-10(x8)-10(x8)-12(x8)---|
A|--7(x8)-8(x8)--10(x8)-10(x8)---|
E|---------------8(x8)-----------|

e|--------------------------|
B|--------------------------|
G|--9(x8)-10(x8)------------|
D|--9(x8)-10(x8)-10(x16)----|
A|--7(x8)-8(x8)--10(x16)----|
E|---------------8(x16)-----|

Interlude 3:(Same as interlude 1)

Outro: (Sometimes I don't feel the same way as you feel)

Mark

G|------------------------------------------|
D|------------------------------------------|
A|------------------------------------------|
e|--5(x8)-1(x8)-5(x8)-8(x8)-1(x8)-3-3(x2)-8-|


Tom

e|-------------------------------------------|
B|-------------------------------------------|
G|--------------------5(x8)-------4-4(x2)-5--|
D|--7(x8)-3(x8)-7(x8)-5(x8)-3(x8)---------5--|
A|--7(x8)-3(x8)-7(x8)-3(x8)-3(x8)---------3--|
E|--5(x8)-1(x8)-5(x8)-------1(x8)------------|


Song order

Intro Part 1: Mark only (x2)
Intro Part 2: Mark (x4)
            : Tom  (x2)
Intro Part 3: Mark (x1)
              Tom  (x1)
Intro Part 2: Mark (x1)
              Tom  (x1)
Verse 1: Mark Only (x4)
Chorus: Same as Intro Part 3
Intro Part 2: Mark (x2)
              Tom  (x1)
Verse 2: Same as verse 1
Chorus: Same as Intro Part 3
Interlude 1: Mark (x2)
             Tom  (x2)
Verse 3: Mark (x4)
         Tom  (x4)
Extra: Mark (x1)
       tom  (x1)
Interlude 1: Mark (x2)
             Tom  (x2)
Bridge: Mark (x2)
        Tom  (x2)
Interlude 1: Mark (x4)
             tom  (x4)
Outro: Mark (x1)
        Tom  (x1)
Comments