Blink 182 - Cacophony Chords & Tabs

 

Cacophony Chords & Tabs

Blink 182 Chords & Tabs

Version: 3 Type: Tab 0 ratings
1 star 2 stars 3 stars 4 stars 5 stars
comments

Cacophony Tab

Blink 182 - Cacophony.
 Tabbed by Mike, hawker489@aol.com.
  
--
  
Bass Intro
e------------------------------------------------x1
B------------------------------------------------
G------------------------------------------------
D------------------------------------------------
A------3---------3---------7---------3-----------
E--0-0---0---3-3---3---5-5---5---1-1---1---------
[ Tab from: http://www.guitartabs.cc/tabs/b/blink_182/cacophony_tab_ver_3.html ]
  Guitar Intro
e------------------------------------------------x1
B--5-5-5-5-5--10-10-9-5-5-5--5-5-5-5--4-5--------
G------------------------------------------------

  Verse
D------------------------------------------------x1
A------3-------3-----------7-8-7---------3-------
E--0-0---0---3---3-3---5-5-------5---1-1---1-----
 
:: Ultimate Guitar Archive :: 
http://www.ultimate-guitar.com 



Comments