Blink 182 - Cacophony Chords & Tabs

 

Cacophony Chords & Tabs

Blink 182 Chords & Tabs

Version: 2 Type: Bass Tab 0 ratings
1 star 2 stars 3 stars 4 stars 5 stars
comments

Cacophony Bass Tab

   
Title: Cacophony
Band: Blink 182
Album: Cheshire Cat
Tabbed by: Pit Viper (pit_viper2001@hotmail.com)

My first tab. I may have messed up on how many times you hit each note.
But the notes are correct, so stop harrassing me!

Intro/Verse 1 & 2:
G|----------------------------9-------------|
D|-----10---------10-------------------10---| x6
A|-7-7----7-10-10----10-12-12---12-8-8----8-|
E|------------------------------------------|

Chorus:(Sometimes I don't feel...)
G|-----------------------------------------|
D|-----------------------------------------|
A|-12-12-12-12-12-12-12-12-8-8-8-8-8-8-8-8-|
E|-----------------------------------------|

G|--------------------------------------------------------------------|
D|--------------------------------------------------------------------|
A|-12-12-12-12-12-12-12-12-10-10-10-10-10-10-10-10-10-8-8-8-8-8-8-8-8-|
E|--------------------------------------------------------------------|

[ Tab from: http://www.guitartabs.cc/tabs/b/blink_182/cacophony_btab_ver_2.html ]
Verse 3
Riff 1:
G|--------------------------------------------------------------|
D|--------------------------------------------------------------| x2
A|-----------------8-8-8-8-8-8-8-8-7-7-7-7-7-7-7-7-8-8-8-8-8-10-|
E|-8-8-8-8-8-8-8-8----------------------------------------------|


Riff 2:(I'd think of all the things...)
G|-----------------------------------------------------------------|
D|-----------------7-7-7-7-7-7-7-7---------------------------------| x4
A|---------------------------------8-8-8-8-8-8-8-8-8-8-8-8-8-8-8-8-|
E|-8-8-8-8-8-8-8-8-------------------------------------------------|


Riff 1 x1


Riff 3:(Will there ever be...)
G|---------------------------------------------------------------------|
D|---------------------------------------------------------------------|
A|-7-7-7-7-8-8-8-8---------10-10-10-10-7-7-7-7-8-8-8-8-----------------|
E|-----------------8-8-8-8-----------------------------8-8-8-8-8-8-8-8-|

G|-----------------------------------------------------------------|
D|-----------------------------------------------------------------|
A|-7-7-7-7-8-8-8-8---------10-10-10-10-7-7-7-7---------10-10-10-10-|
E|-----------------8-8-8-8---------------------8-8-8-8-------------|

Riff 1 x2
Chorus x1

End 
E|-8-|


Pit Viper's Punk & Ska Bass Tabs. 
Over a thousand tabs!(http://basstabs.webjump.com)

Comments