Blink 182 - Buddha Chords & Tabs

 

Buddha Chords & Tabs

Blink 182 Chords & Tabs

Version: 1 Type: Bass Tab 0 ratings
1 star 2 stars 3 stars 4 stars 5 stars
comments

Buddha Bass Tab

   
--Carousel
Intro
G:---11-11-12-14-12-11-------------------------9-9-11-12-11-9---|
D:-0---------------------11-11-12-14-12-11--9-------------------|
A:---------------------12---------------------------------------|
E:--------------------------------------------------------------|

G:--7-7-7-7-7-7-|
D:-5-5-5-5-5-5--|
A:--------------|  x2
E:--------------|

then... (1:04)
G:-11-11-11-11-11-11--9--9--9--9--9--9--11-11-11-11-11-11--9-7-7-7-7-7-7-7--|
D:-0--0--0--0--0--0---7--7--7--7--7--7---9--9--9--9--9--9---5-5-5-5-5-5-5---|
A:--------------------------------------------------------------------------|
E:--------------------------------------------------------------------------|
There is a certain rhythm to this part, but it's easy to figure out.

This part isn't played but I play it

G-11-11-11-11-11-11-11-11-9-9-9-9-9-9-9-9-11-11-11-11-11-11-11-11-14-14-12-12-11-11-9-9-|
D---------------------------------------------------------------------------------------|
A---------------------------------------------------------------------------------------|
E---------------------------------------------------------------------------------------|
(That sounds pretty good played with the guitar it's actually instead of 14 14 12 12 11
11 9  9 it's 7 7 7 7 7 7 7 7)

Now the verse: (Easy)
G:-------------------------------------------------------------|
D:-------------------------------------------------------------|
A:-5-5-5-5-5-5-5-----------------------------------------------|
E:---------------5-5-5-5-5-5-5--7-7-7-7-7-7-7--3-3-3-3-3-3-3---|

Chorus: once again this fill is fairly accurate
G:--------------------------------------------------|
D:--------------------------------------------------|
A:-5-5-5-5-5-5-7-7-7-7-7-7--------------------------|
E:-------------------------5-5-5-9-7-5--3-3-3-7-5-3-|

Bridge:
G:----------------------------------|
D:----------------------------------|
A:-5---------5----------------------|
E:---5--7--3---5--7-7-7-7--3-3-3-3--|

--T.V.
Intro:
G|----5---5--5-----/10---10---10----5---5--5-----/10---10----10--------------|
D|-33---33--3---/88----88----8---33---33--3---/88----88----88----------------|
A|---------------------------------------------------------------------------|
E|---------------------------------------------------------------------------|

Cont:
G|----5---5---5----/10----10--10-------/17------17---17----------------------|
D|-33---33--3---/88----88----8---/15-15---15-15----15------------------------|
A|---------------------------------------------------------------------------|
E|---------------------------------------------------------------------------|

Cont:
G|------3333-0000-3333------3333-0000-3333----------33333333---------33333333|
D|-3333----------------3333----------------33333333----------3333333---------|
A|---------------------------------------------------------------------------|
E|---------------------------------------------------------------------------|

Cont:
G|------3333-0000-5555------3333-0000-5555--------|
D|-3333----------------3333-----------------------|
A|------------------------------------------------|
E|------------------------------------------------|

Verse:
G|----3>------------------------------------------|
D|-3>---------------------------------------------|
A|------------------------------------------------|
E|------------------------------------------------|

Chorus:
G|------3333-0000-5555------3333-0000-5555--------|
D|-3333----------------3333-----------------------|
A|------------------------------------------------|
E|------------------------------------------------|

--Strings
INTRO/VERSE
G:----------------------------------------------------------------|
D:----------------------------------------------------------------|
A:--55555555-00000000-77777777-1010101010101010-------------------|
E:----------------------------------------------------------------|

CHORUS
G:---------------------------------------------------------------|
D:---------------------------------------------------------------|
A:-33333333--5555--8888------------------------------------------|
E:---------------------------------------------------------------|

END ON A:---3---

--Fentoozler

Verse: (4x)
G:----------------------------------------------------------------------------------------|
D:-----------4-4-4-4-4-464----------2-2-2-2-2-4-2-1------------------2-2-2-2-4-2----------|
A:--2-2-2-2-----------------2-2-2-2------------------2-2-2-2-4-4-4-4-----------------4-2--|
E:----------------------------------------------------------------------------------------|

At the end of the 4th time end like this:
G:------------|
D:--4-2-------|
A:-------2-4--|
E:------------|

Chorus: (1x)
G:---------------------------------------------------------|
D:-------------222222------------444444------------222222--|
A:--444444------------222222------------222222-------------|
E:---------------------------------------------------------|

--Time
G:-------------------------------------|
D:-------------------------------------|
A:-00005-55-77775-55-00005-55-77777777-|
E:-------------------------------------|

G:-------------------------------------|
D:-00000000-77777777-99999999-55555555-|
A:-------------------------------------|
E:-------------------------------------|

G:----------------------|
D:----------------------|
A:-000--7777--000--5555-|
E:----------------------|

G:----------------------------------------|
D:----------------------------------------|
A:-00000000-77777777-*55555555--540--540*-|
E:----------------------------------------|

change the part in the stars to this at the end
G:-------------------|
D:-------------------|
A:-545754--757975--0-|
E:-------------------|

--Romeo and Rebecca
Intro
g-----9-----9---9------11-----11---11-------13-------13----13-------14-------14----14-|
d-7-7---7-7---7----9-9----9-9----9----11-11----11-11----11----12-12----12-12----12----|
a-------------------------------------------------------------------------------------|
e-------------------------------------------------------------------------------------|

g-----9-----9---9-----9---11-9-9----------9----11-9-9-------11-11-11-11-9-9--|
d-7-7---7-7---7---9-9---9--------0--11-11---11--------0-9-9------------------|
a----------------------------------------------------------------------------|
e----------------------------------------------------------------------------|

Verse
g----------------------------------------------------------------------|
d------------------2-2-2-2-2-2-2-2--4-4-4-4-4-4-4-4--2-2-2-2-2-2-2-2---|
a-0-0-0-0-0-0-0-0------------------------------------------------------|
e----------------------------------------------------------------------|

Chorus
g--------------------------------------------------------------------|
d--------------------------------------------------------------------|
a-3-3-3-3-3-3-3-3--0-0-0-0-0-0-0-0-----------------------------------|
e----------------------------------3-3-3-3-3-3-3-3--1-1-1-1-1-1-1-1--|

Bridge
g------------------------------------------------------|
d------------------------------------------------------|
a-3-3-3-3-3/5-------------/7-7-7-7-7/8-5-5-5-5-5-5-5---|
e-------------3-3-3-3-3-3------------------------------|

"I don't want to live alone..."
g---------------------------------------------------------------------|
d---------------------------------------------------------------------|
a-0-0-0-0-0-0-0-0--2-2-2-2-2-2-2-2--4-4-4-4-4-4-4-4--5-5-5-5-5-5-5-5--|
e---------------------------------------------------------------------|

End on A--0--

--21 Days
*Intro*
G:-7-----7-----7---7---7-------|
D:---0-0---0-0---0---0---0-0-0-|
A:-----------------------------|
E:-----------------------------|

G:-7-----9-----11-----12---11---9-----------|
D:---0-0---0-0----0-0----0----0---0-0-0-0-0-|
A:------------------------------------------|
E:------------------------------------------|

G:-7-----9-----11-----12---14---|
D:---0-0---0-0----0-0----0----0-|
A:------------------------------|
E:------------------------------|

G:-12-----11-----9-----11-----12-----14---|
D:----0-0----0-0---0-0----0-0----0-0----0-|
A:----------------------------------------|
E:----------------------------------------|

G:-12---9---11---12-----14-----12---11---9---|
D:----0---0----0----0-0----0-0----0----0---0-|
A:-------------------------------------------|
E:-------------------------------------------|

*Pre-Verse 1*
G:----------------------------------------------------------------------|
D:----------------------------------------------------------------------|
A:-5-5-5-5-5-5-5-5-5-5-5-5-5-5-5-5--0-0-0-0-0-0-0-0--2-2-2-2--/---------|
E:-----------------------------------------------------------/--3-3-3-3-|

*Verse 1*
G:-------------------------------------------------------------------|
D:--------------------------7-7-7-7--5--5-5--5--5--5-5-5-5-/-4-4-4-4-|
A:-5-5-5-5-5-5-5-5-5-5-5-5-------------------------------------------|
E:-------------------------------------------------------------------|

*Pre-Verse 2*
G:---------------------------------------------------------------------|
D:----------------------------------7-7-7-7-7-7-7-7--9-9-9-9-/-5-5-5-5-|
A:-5-5-5-5-5-5-5-5-5-5-5-5-5-5-5-5-------------------------------------|
E:---------------------------------------------------------------------|

*Verse 2*
G:---------------------------------------------------------------------------|
D:------------------5----5----5----5----5------------------------------------|
A:-7-7-7-7-7-7-7-7-------------------------5-5-5-5-5-5-5-5-5-5-5-5-5-5-5-5---|
E:-------------------------------------------------------------------------7-|
[ Tab from: http://www.guitartabs.cc/tabs/b/blink_182/buddha_btab.html ]
*Interlude*
G:---------------------------------------------------------------------|
D:---------------------------------------------------------------------|
A:-5-5-5-5-5-5-5-5-5-5-5-5-5-5-5-5-------------------------------------|
E:----------------------------------5-5-5-5-5-5-5-5--7-7-7-7-/-3-3-3-3-|

*Ending*
G:-------------------------------------------------------------------|
D:-------------------------------------------------------------------|
A:----------------------------------5-5-5-5-5-5-5-5-5-5-5-5-5-5-5-5--|
E:-3-3-3-3-3-3-3-3-3-3-3-3-3-3-3-3-----------------------------------|

G:-------------------------------------------------------------------|
D:-------------------------------------------------------------------|
A:---------------------------------------------------3-3-3-3-3-3-3-3-|
E:-5-5-5-5-5-5-5-5-5-5-5-5-5-5-5-5--7-7-7-7-7-7-7-7------------------|

--Sometimes
RIFF #1
G:----------------------------------------------|
D:----------------------------------------------|
A:------3333------5555--------------------------|
E:-3333------3333-------------------------------|

RIFF #2 ("Sometimes all I...")
G:------------------------------------------------|
D:------------------------------------------------|
A:-33333333-------------------33333333------------|
E:----------33333333-00000000---------------------|

RIFF #3
G:------------------------------------------------|
D:------------------------------------------------|
A:------------------333---------------------------|
E:-3333333-00000000-------------------------------|

*Order*
Riff 1 x 10
Riff 2 x 1
Riff 1 x 8
Riff 2 x 1
Riff 1 x 2

--Point of View

      Intro
G|------------------------------------------------------|
D|------------------------------------------------------|
A|---00-4-55----00--------------------------------------|
E|----------------------2-00----------------------------|

         Verse
G|------------------------------------------------------|
D|------------------------------------------------------|
A|---00-4-55555----00-----------------------------------|
E|---------------------------2-00000--------------------|

    Chorus
G|------------------------------------------------------|
D|------------------------------------------------------|
A|---7777-9999------------------------------------------|
E|-------------------7777-9999--------------------------|

      Interlude
G|--------------------------------------------------------|
D|--------------------------------------------------------|
A|-----------7777-----------------------------------------|
E|---5555---------7777-5555-------------------------------|

--My Pet Sally
Intro(after Drum Solo)
G:-----------------------------------|
D:-----------------7----7------------|
A:-000000-222222-55-5-55-5-----------|
E:-----------------------------------|

Verse (during singing):

G:------------------------------------------------|
D:------------------------------------------------|
A:-00000000----22222222----55555555----22222222---|
E:------------------------------------------------|

Chorus:

G:-------------------------------------|
D:------------------------7----7-------|
A:-000000----2222222----55-5-55-5------|
E:-------------------------------------|

--Reebok Commercial (Some other guy on UG did this tab and I borrowed it because
i'm just to lazy) (The bassist of duct tape)(If you want to find out the guy who
did this just look up the song it on there.)
INTRO:
1st time:
G:--------------------------------------------------|
D:--0000-2222-4444-5555-7777-55^7^5--4444-22^4^2----|
A:--------------------------------------------------|
E:--------------------------------------------------|

2nd time: - This is not the same thing, you'll hear the change
(^ means hit on the note, or pull off, whichever, you'll see)
G:--------------------------------------------------|
D:--0000-2222-4444-5555-7777-55^7^5--44^55-22^4^2---|
A:--------------------------------------------------|
E:--------------------------------------------------|
3rd time (repeated twice) - Yes this is different, and its noticeably
different.
G:--------------------------------------------------|
D:--0000-2222-4444-5555-7777-55^7^5--44^5-222^4^2---|
A:--------------------------------------------------|
E:--------------------------------------------------|

Then it stops for Scott (the old drummer) to
do a roll on one of the cymbals (crash?)
Bass does:
(* means hold on the note)
G:-------------------------------------------|
D:-0*-------------------0*-------------------|
A:-------------------------------------------|
E:-------------------------------------------|

Then the bass does this twice:
G:-------------------------------------------|
D:--55555555---------------------------------|
A:-----------33333333-55555555-33333333------|
E:-------------------------------------------|

Then back to another variation of the first riff, only quicker:
G:-------------------------------------------|
D:-00-22-44-55-77-55-4^5^4-2^4^2-------------|
A:-------------------------------------------|
E:-------------------------------------------|

And then finally, the last part of the intro
G:-------------------------------------------|
D:-00-22-44-55-77777777----------------------|
A:-------------------------------------------|
E:-------------------------------------------|

As for the actual song (even though the intro is way cooler):

Mark (bass) does this 4 times during the verse
G:-------------------------------------------|
D:--55555555---------------------------------|
A:-----------33333333-55555555-33333333------|
E:-------------------------------------------|

Then theres another roll on the cymbals which leads into the chorus
G:-------------------------------------------|
D:-0*-------------------0*-------------------|
A:-------------------------------------------|
E:-------------------------------------------|

G:-------------------------------------------|
D:--5555-------------------------------------|
A:-------3333-5555-3333----------------------|
E:-------------------------------------------|

Go back to this:
G:-------------------------------------------|
D:--55555555---------------------------------|
A:-----------33333333-55555555-33333333------|
E:-------------------------------------------|

Then back to the regular riff, and end the song
G:-------------------------------------------|
D:--5555-------------------------------------|
A:-------3333-5555-3333----------------------|
E:-------------------------------------------|

Just remember to end on
D:--0*---------------------------------------

Toast and Bananas
Intro (instead of bending switch from 5 to 4 and back a few times)
G----------------------------
D---------------------------
A-0-0-0-2-2-2-4-4-4brbrbrbr--
E---------------------------- x8

Verse 1
G--------------------------------------------
D--------------------------------------------
A-0-0-0--7-7-7-9-9-9-5-5-5------------------
E--------------------------------------------- x4

Chorus
G------------------------------------------------
D------------------------------------------------
A-0-0-0------7-7-7-----9-9-9------5-5-5--------
E------------------------------------------------

G--------------------------------------------
D--------------------------------------------
A-0-0-0--7-7-7-9-9-9-5-5-5------------------
E---------------------------------------------

Intro x 4
Verse 1 x2 (Until he sings "I couldn't care less of what you say...")

Verse 2
G----------------------------------
D---------2-2-2------------------
A-0-0-0----------4-4-4-4-4-4-
E---------------------------------- x2

Chorus

Guitar Solo
G---------------------------------
D---------------------------------
A-0-0-0-7-7-7-9-9-9-5-5-5-
E---------------------------------- x4

Verse 1 x2
Chorus 

End on A--0--

--The Girl Next Door
intro
G:------------------------------------------------------------------------|
D:------------------------------------------------------------------------|
A:---------2222-------3333------------------------------------------------|
E:-3333--------0000-------------------------------------------------------|

during words( play intro during chorus)
G:-----------------------------------------------------------------------------|
D:-----------------------------------------------------------------------------|
A:----------------22222222-------------33333333--------------------------------|
E:-33333333---------------0000000----------------------------------------------|

--Don't
Intro
G:-7---7-7-7-7-7-------------------------------------------------|
D:---5---0-5-5-5-------------------------------------------------|
A:---------------------------------------------------------------|
E:---------------------------------------------------------------|

Verse

G:---------------------------------------------------------------|
D:-5-5-5-5-7-7-7-7-9-9-9-9-10-10-10-10---------------------------|
A:---------------------------------------------------------------|
E:---------------------------------------------------------------|

Chorus

G:---------------------------------------------------------------|
D:-7-7-7-7-------------------------------------------------------|
A:---------9-9-9-9-5-5-5-5-5-5-5-5-------------------------------|
E:---------------------------------------------------------------|

After Chorus(under guitar solo)

G:---------------------------------------------------------------|
D:-7-7-7-7-7-7-7-7-----------------------------------------------|
A:-----------------5-5-5-5-5-5-5-5-------------------------------|
E:---------------------------------------------------------------|


*Order*
Intro        x 11
Verse        x 2
Intro        x 8
Verse        x 4
Chorus       x 4
After Chorus x 2
Intro        x 8
Verse        x 2
Intro        x 8
Verse        x 4
Chorus       x 4
After Chorus x 2
Verse        x 2

End on D-5-
Comments