Blink 182 - Boring Chords & Tabs

 

Boring Chords & Tabs

Blink 182 Chords & Tabs

Version: 4 Type: Tab 0 ratings
1 star 2 stars 3 stars 4 stars 5 stars
comments

Boring Tab

-------------------------BORING-----------------------------
artist: blink 182
song: boring
CD: dude ranch
tuning:standard 
fast rock=204
h= hammer on
p= pull off
>=accent (play harder and louder)
                          play 4 times
E--------------------------------------|--------------------
B--------------------------------------|--------------------
G--------------------------------------|--------------------
D--------------------------------------|--------------------
A-0-4-0-0-5-0-4-p0----2------5----2-p0-|-0-4-0-0-5-0-4-p0---
E-------------------0----0-0---0-------|--------------------
p.m.................................|

E-----------------------------------------------------------
B-----------------------------------------------------------
g-----------------------------------------------------------
D-----------------------------------------------------------
A---2-----5----2-p0---0-4-0-0-5-0-4-p0----2-----5-----2--p0-
E-0---0-0----0--------------------------0---0-0----0--------

E-----------------------------------------------------------
B-----------------------------------------------------------
G-----------------------------------------------------------
D-----------------------------------------------------------
A-0-4-0-0-5-0-4-p0----2-----5---2-p0-0-4-0-0-5-0-4-p0--2----
E-------------------0---0-0---0-----------------------0-----
[ Tab from: http://www.guitartabs.cc/tabs/b/blink_182/boring_tab_ver_4.html ]
E-------------|
B-------------|
G-------------|
D-------------|
A-----5---2-p0|
E-0-0---0-----| 
verse faster=216 "you dont need..."
E-----------------------------------------|-----------------
B-----------------------------------------|-----------------
G-----2------2-------------7-------------2|-----------7-----
D-----2------2------4------7-----2-------2|-----------7-----
A-0-0-0--4-4-4------4--5-5-5-----2---4-4-4|-----2-p0--5-----
E---------------2-2-2--------0-0-0--------|-0-0-------------
p.m............................................|

E-----------------------------------------------------------
B-----------------------------------------------------------
G-----2-------2--------------7-------------2---------7--7---
D-----2-------2------4-------7------2------2---------7--7---
A-0-0-0---4-4-4------4---5-5-5------2--4-4-4-----2-p0-5--5--
E----------------2-2-2----------0-0-0--------0-0------------
p.m.............................................|
chorus
E-----------------------------------------------------------
B-----------------------------------------------------------
G------6-6------7-7-7--9-9-9-9-------6-6------7-7-7-9-9-9-9-
D-7-7--6-6-6-6--7-7-7--9-9-9-9--7-7--6-6--6-6-7-7-7-9-9-9-9-
A-7-7--4-4-6-6--5-5-5--7-7-7-7--7-7--4-4--6-6-5-5-5-7-7-7-7-
E-5-5------4-4------------------5-5-------4-4---------------
play twice

outro:
E-----------------------------------------------------------
B-----------------------------------------------------------
G-----------------------------------------------------------
D-7-7-7-6-6-6----------------------------6-6-6--------------
A-------------7-7-7-7-7-7-7-7-7-7-7-5-5-5------7-7-7-0-0-0-0
E-----------------------------------------------------------
play 4 more a's or 0's after that and play it 4 times

E-----------------------------------------------------------
B-----------------------------------------------------------
G-2-2-------------------------------------------------------
D-2-2-------------------------------------------------------
A-0-0--------7-7-7-7----------------------------------------
E-----------------------------------------------------------
  > >     harm......|
then play chorus again ending on:

E----------------|
B----------------|
G----------------|
D------7\--------|
A------7\--------|
E------5\--------|
w/ kissing noises
Comments