Blink 182 - Ben Wah Balls Chords & Tabs

 

Ben Wah Balls Chords & Tabs

Blink 182 Chords & Tabs

Version: 2 Type: Tab 0 ratings
1 star 2 stars 3 stars 4 stars 5 stars
comments

Ben Wah Balls Tab

Email me at Muel22@hotmail.com for any corrections 

Intro
----------------------------------------------------------
----------------------------------------------------------
----------------------------------------------------------
--44444-------44444--------44444--------44444-------------
--55555-55555-55555-xx7xx7-55555-xx7xx7-55555-5~----------
--------33333-------xx5xx5-------xx5xx5-------3~----------

First little riff
-151515-141414------141414-151515-141414------141514151414
--------------151515--------------------151515------------
----------------------------------------------------------
----------------------------------------------------------
----------------------------------------------------------
----------------------------------------------------------

Chorus
----------------------------------------------------------
----------------------------------------------------------
-77777-------77777----------------------------------------
-77777-55555-55555-77777-55555----------------------------
-55555-33333-55555-55555-33333----------------------------
-------33333-------55555-33333----------------------------
                         .PM..

Another little riff (distorted)
----------------------------------------------------------
----------------------------------------------------------
----------------------------------------------------------
----0h7p5-----0h4p5---reapeat until tom starts singing----
-555------555---------------------------------------------
----------------------------------------------------------
[ Tab from: http://www.guitartabs.cc/tabs/b/blink_182/ben_wah_balls_tab_ver_2.html ]
Play this when Tom starts singing
-----------------------------------------------------------
----------------------------------------------------------
-9--9---9-9--7-7--9-9-------------------------------------
-11-11--7-7--5-5--7-7-------------------------------------
----------------------------------------------------------
----------------------------------------------------------

Solo (distorted)
----------------------------------------------------------
----------------------------------------------------------
----------------------------------------------------------
----------------------------------------------------------
-5~-4--7--5--4--------7--4--5~----------------------------
----------------5--5--------------------------------------

Clean guitar part
----------------------------------------------------------
----------------------------------------------------------
----------------------------------------------------------
-4445450----4-4------7-7------7-7-5-4------4-5-4-0---77--44
---------555-5-5--555-5-5--555-5-----5--555--------55--55-
----------------------------------------------------------

'She said when i was a little girl....'(palm muted)
----------------------------------------------------------
----------------------------------------------------------
----------------------------------------------------------
--7777----------------------------------------------------
--5555-5555-7777-5555-------------------------------------
-------3333-5555-3333-------------------------------------

There are probably some faults somewhere but its a pretty 
good attempt, you can figure out the timing and order 
yourself
Comments