Blink 182 - Ben Wah Balls Chords & Tabs

 

Ben Wah Balls Chords & Tabs

Blink 182 Chords & Tabs

Version: 1 Type: Tab 0 ratings
1 star 2 stars 3 stars 4 stars 5 stars
comments

Ben Wah Balls Tab

Blink 182
Ben Wah Balls
Cheshire Cat

The other tab for this song was terrible.
I don't have the whole song, just the
Intro.  And I'm pretty sure it's right.

E|-----------------------------------
B|-----------------------------------
G|-----------------------------------
D|-4-4-4-4-5-5-5-5-4-4-4-4-xx5xx5----
A|-5-5-5-5-5-5-5-5-5-5-5-5-xx5xx5----
E|---------3-3-3-3---------xx3xx3----


E|-----------------------------------
B|-----------------------------------
G|-----------------------------------
D|-4-4-4-4-xx5xx5-3-3-3-3-3----------
A|-5-5-5-5-xx5xx5-3-3-3-3-3----------
E|---------xx3xx3-1-1-1-1-1----------


E|-15-15-15-14-14-14-----------------                 
B|-------------------15-15-15-15-15--
G|-----------------------------------
D|-----------------------------------
A|-----------------------------------
E|-----------------------------------
[ Tab from: http://www.guitartabs.cc/tabs/b/blink_182/ben_wah_balls_tab.html ]

E|-14-14-14-15-15-15-----------------
B|-------------------15-15-15-15-15--
G|-----------------------------------
D|-----------------------------------
A|-----------------------------------
E|-----------------------------------

E|-15-15-15-14-14-14-----------------
B|-------------------15-15-15-15-15--
G|-----------------------------------
D|-----------------------------------
A|-----------------------------------
E|-----------------------------------

E|-14-14-14-15-15-15-14-14-14-15-15-15--------
B|-------------------------------------15-15--
G|--------------------------------------------
D|--------------------------------------------
A|--------------------------------------------
E|--------------------------------------------

Yup, that's it, I'm only 14 and I just started guitar, and this is a fun song to play.  Refer to other tabs for the rest of the song.
Comments