Blink 182 - Asthenia Chords & Tabs

 

Asthenia Chords & Tabs

Blink 182 Chords & Tabs

Version: 4 Type: Tab 0 ratings
1 star 2 stars 3 stars 4 stars 5 stars
comments

Asthenia Tab

Tabbed by Colin Baillio http://www.webspawner.com/users/qwertcb/index.html

This is 100% correct!

Asenthia
[ Tab from: http://www.guitartabs.cc/tabs/b/blink_182/asthenia_tab_ver_4.html ]
Intro/Verse
1-------------------------------------------------------
2---------------7~----------------7~--------------------
3---7~------7~------7~-----7~---------------------------
4------------------------------5~-----------------------
5-------5~--------------5~------------------------------
6------------------------------------------------------- X5
Pre-Chorus
1------------------------------------------------
2------------------------------------------------
3------------------------------------------------
4---7-7-7-9-7-7-7-9-7-7-7-9-7-7-7-9-7-7-7-9------
5---5-4-5-7-5-4-5-7-5-4-5-7-5-4-5-7-5-4-5-7------
6------------------------------------------------
Chorus
1------------------------------------------------
2------------------------------------------------
3------------------------------------------------
4---7-7-7-7-----7-7-7-7-----9-9-9-9--------------
5---4-4-4-4-X2--5-5-5-5-X2--7-7-7-7-X4-----------
6------------------------------------------------
Solo
1-----------------------------------------------
2-----------------------------------------------
3-----------------------------------------------
4---4-4-4-5-5-5-2-2-2-2-2-2-2-2-----------------
5-----------------------------------------------
6----------------------------------------------- X4
Intro/Verse
Pre-Chorus
Chorus
Intro/Verse
Pre-Chorus
Chorus
Chorus
Solo
Chorus
Comments