Blink 182 - Asthenia Chords & Tabs

 

Asthenia Chords & Tabs

Blink 182 Chords & Tabs

Version: 3 Type: Bass Tab 0 ratings
1 star 2 stars 3 stars 4 stars 5 stars
comments

Asthenia Bass Tab

Blink 182
Asthenia
Tabbed By Daniel182

this song is really good an d fun to play, please rate

intro(00:51)
|-----------------------------------------|
|-----------------------------------------|
|-0h5555555-5h7777777-0h2222222-2p0000000-|x2
|-----------------------------------------|

verse 1
|-------------------------------------|
|-------------------------------------|
|-55555555-44444444-22222222-44444444-|x4
|-------------------------------------|

pre chorus
|------------------------------------------------------|
|-------------5555-444444444444-7777-555555555555------|
|-555555555555------------------------------------5555-|x2
|------------------------------------------------------|

chorus
|------------------------------------------------------------|
|------------------------------------------------------------|
|-------------------------44444444------------------------4~-|x1
|-2222-22-3333-33-5555-55----------2222-22-3333-33-5555-55---|

intro/pre verse
|-----------------------------------------|
|-----------------------------------------|
|-0h5555555-5h7777777-0h2222222-2p0000000-|x2
|-----------------------------------------|

verse 1
|-------------------------------------|
|-------------------------------------|
|-55555555-44444444-22222222-44444444-|x2
|-------------------------------------|
[ Tab from: http://www.guitartabs.cc/tabs/b/blink_182/asthenia_btab_ver_3.html ]
pre chorus
|------------------------------------------------------|
|-------------5555-444444444444-7777-555555555555------|
|-555555555555------------------------------------5555-|x2
|------------------------------------------------------|

chorus
|----------------------------------|  |---------------------------|
|----------------------------------|  |---------------------------|
|-------------------------44444444-|x3|------------------------4~-|x1
|-2222-22-3333-33-5555-55----------|  |-2222-22-3333-33-5555-55---|

bridge
|--------------------------------------------------|  |--------|
|--------------------------------------------------|  |--------|
|-555555555555-000000000000------------------------|x4|-5~~~~~-|x1
|---------------------------333333333333-0000-3333-|  |--------|

chorus
|----------------------------------|  |---------------------------|
|----------------------------------|  |---------------------------|
|-------------------------44444444-|x3|------------------------4~-|x1
|-2222-22-3333-33-5555-55----------|  |-2222-22-3333-33-5555-55---|

outro
|------------------------------------------------------|
|-------------5555-444444444444-7777-555555555555------|
|-555555555555------------------------------------5555-|x1
|------------------------------------------------------|

|----------------------------------------------|
|-------------5555-444444444444-7777-5~~~------|
|-555555555555---------------------------------|x1
|----------------------------------------------|

thats it! please rate this tab! thankx!
Comments