Blink 182 - Apple Shampoo Chords & Tabs

 

Apple Shampoo Chords & Tabs

Blink 182 Chords & Tabs

Version: 3 Type: Tab 0 ratings
1 star 2 stars 3 stars 4 stars 5 stars
comments

Apple Shampoo Tab

It's not perfect but I did my best

Intro

E|------------|
B|------------|
G|7-----------|
D|7-----------|
A|5-----------|
E|------------|

intro 2
x2

E|---------------------------------------------------------|
B|---------------------------------------------------------|
G|7--------------------------------------------------------|
D|7----7----9----555777------------------------------------|
A|5----7----9----555777------------------------------------|
E|-----5----7----333555------------------------------------|

Verse

E|----------------------------|
B|----------------------------|
G|-----5555-7777-5555---------|
D|5555-5555-7777-5555---------|
A|5555-3333-5555-3333---------|
E|3333------------------------|

verse 2
x2
E|--------------------------------------------------------|
B|--------------------------------------------------------|
G|--------------------------------------------------------|
D|----2------2------3------3------5------5------3------3--|
A|--3----3-3----------------------------------------------|
E|--------------1-1----1-1----3-3----3-3----1-1----1-1----|

Verse

E|----------------------------|
B|----------------------------|
G|-----5555-7777-5555---------|
D|5555-5555-7777-5555---------|
A|5555-3333-5555-3333---------|
E|3333------------------------|

verse 2
x2
E|--------------------------------------------------------|
B|--------------------------------------------------------|
G|--------------------------------------------------------|
D|----2------2------3------3------5------5------3------3--|
A|--3----3-3----------------------------------------------|
E|--------------1-1----1-1----3-3----3-3----1-1----1-1----|

verse 3
[ Tab from: http://www.guitartabs.cc/tabs/b/blink_182/apple_shampoo_tab_ver_3.html ]
E|--------------------------------------------------------------------|
B|----------5555555555------------------------------------------------|
G|22222222225555555555222222222277777777779999999999------------------|
D|22222222223333333333222222222277777777779999999999------------------|
A|0000000000----------000000000055555555557777777777------------------|
E|--------------------------------------------------------------------|

verse 4

E|--------------------------------------------------------------------|
B|------------77777777555555555555555555------------------------------|
G|55555555555577777777555555555555555555------------------------------|
D|55555555555555555555333333333333333333------------------------------|
A|333333333333--------------------------------------------------------|
E|--------------------------------------------------------------------|

Verse

E|----------------------------|
B|----------------------------|
G|-----5555-7777-5555---------|
D|5555-5555-7777-5555---------|
A|5555-3333-5555-3333---------|
E|3333------------------------|

verse 3

E|--------------------------------------------------------------------|
B|----------5555555555------------------------------------------------|
G|22222222225555555555222222222277777777779999999999------------------|
D|22222222223333333333222222222277777777779999999999------------------|
A|0000000000----------000000000055555555557777777777------------------|
E|--------------------------------------------------------------------|

verse 5

E|------------------------------------------------|
B|77777777--------5555555577777777----------------|
G|77777777777777775555555577777777----------------|
D|55555555777777773333333355555555----------------|
A|--------55555555--------------------------------|
E|------------------------------------------------|


Verse

E|----------------------------|
B|----------------------------|
G|-----5555-7777-5555---------|
D|5555-5555-7777-5555---------|
A|5555-3333-5555-3333---------|
E|3333------------------------|
Comments