Blink 182 - Apple Shampoo Chords & Tabs

 

Apple Shampoo Chords & Tabs

Blink 182 Chords & Tabs

Version: 1 Type: Tab 0 ratings
1 star 2 stars 3 stars 4 stars 5 stars
comments

Apple Shampoo Tab

BLINK 182 - APPLE SHAMPOO
DUDE RANCH
TABBED BY Langaz
mlang13@hotmail.com

I was looking for tabs for this song yet all the ones I found were unclear
so I decided to re-tab it in a clearer version hopefully. I'm pretty sure it
is correct if not email me.


INTRO/VERSE 1

|----------------------------------------------------------------|
|----------------------------------------------------------------|
|-5------------------------------7-7-7-7--10-10-10-10--5-(fade)--|
|-5---------7------3------7------7-7-7-7--10-10-10-10--5---------|
|-3---------7------3------7------5-5-5-5---8--8--8--8--3---------|
|-----------5------1------5--------------------------------------|

|-----------------------------------------------|
|-----------------------------------------------|
|-------------------------7-7-7-7--10-10-10-10--|
|-7---------3------7------7-7-7-7--10-10-10-10--|
|-7---------3------7------5-5-5-5---8--8--8--8--|
|-5---------1------5----------------------------|

BRIDGE

|---------------------------------------------------------------|
|---------------------------------------------------------------|
|-5-5--5--5--5--------------------------------------------------| x2
|-5-5--5--5--5----3-3--3--3--3----5-5--5--5--5----3-3--3--3--3--|
|-3-3--3--3--3----3-3--3--3--3----5-5--5--5--5----3-3--3--3--3--|
|-----------------1-1--1--1--1----3-3--3--3--3----1-1--1--1--1--|

VERSE 2

|---------------------------------------------------------|
|---------------------------------------------------------| 
|---------------------------------------------------------| x2
|----2------2------3------3------5------5------3------3---|
|--3----3-3-----------------------------------------------|
|--------------1-1----1-1----3-3----3-3----1-1----1-1-----|

BRIDGE

|---------------------------------------------------------------|
|---------------------------------------------------------------|
|-5-5--5--5--5--------------------------------------------------| x2
|-5-5--5--5--5----3-3--3--3--3----5-5--5--5--5----3-3--3--3--3--|
|-3-3--3--3--3----3-3--3--3--3----5-5--5--5--5----3-3--3--3--3--|
|-----------------1-1--1--1--1----3-3--3--3--3----1-1--1--1--1--|

VERSE 3

|---------------------------------------------------------|
|---------------------------------------------------------| 
|---------------------------------------------------------| x2
|----2------2------3------3------5------5------3------3---|
|--3----3-3-----------------------------------------------|
|--------------1-1----1-1----3-3----3-3----1-1----1-1-----|

CHORUS

|------------------------------------------------------------------------------------|
|------------------------------------------------------------------------------------|
|-------------------------------------------------------------------7-7-7--10-10-10--|
|-7-7-7-7-7-7-7-7-7-7---3-3-3-3-3-3-3-3-3-3---7-7-7-7-7-7-7-7-7-7---7-7-7--10-10-10--|
|-7-7-7-7-7-7-7-7-7-7---3-3-3-3-3-3-3-3-3-3---7-7-7-7-7-7-7-7-7-7---5-5-5---8--8--8--|
|-5-5-5-5-5-5-5-5-5-5---1-1-1-1-1-1-1-1-1-1---5-5-5-5-5-5-5-5-5-5--------------------|
[ Tab from: http://www.guitartabs.cc/tabs/b/blink_182/apple_shampoo_tab.html ]
|--------------------------------------------------------------------------------------|
|--------------------------------------------------------------------------------------|
|-5-5-5-5-5-5-5-5-5-5------------------------------------------------------------------|
|-5-5-5-5-5-5-5-5-5-5---5-5-5-5-5-5-5-5-5-5---3-3-3-3-3-3-3-3-3-3-3-3-3-3-3-3-3-3-3-3--|
|-3-3-3-3-3-3-3-3-3-3---5-5-5-5-5-5-5-5-5-5---3-3-3-3-3-3-3-3-3-3-3-3-3-3-3-3-3-3-3-3--|
|-----------------------3-3-3-3-3-3-3-3-3-3---1-1-1-1-1-1-1-1-1-1-1-1-1-1-1-1-1-1-1-1--|

|----------------------------------------------------------------------------------------------------|
|----------------------------------------------------------------------------------------------------|
|-5-5-5-5-5-5-5-5-5-5---7-7-7-7-7-7-7-7-7-7---------------------------------------------------4-4-4--|
|-5-5-5-5-5-5-5-5-5-5---7-7-7-7-7-7-7-7-7-7---3-3-3-3-3-3-3-3-3-3-3---5-5-5-5-5---7-7-7-7-7---4-4-4--|
|-3-3-3-3-3-3-3-3-3-3---5-5-5-5-5-5-5-5-5-5---3-3-3-3-3-3-3-3-3-3-3---5-5-5-5-5---7-7-7-7-7---2-2-2--|
|---------------------------------------------1-1-1-1-1-1-1-1-1-1-1---3-3-3-3-3---5-5-5-5-5----------|

BRIDGE

|---------------------------------------------------------------|
|---------------------------------------------------------------|
|-5-5--5--5--5--------------------------------------------------| x2
|-5-5--5--5--5----3-3--3--3--3----5-5--5--5--5----3-3--3--3--3--|
|-3-3--3--3--3----3-3--3--3--3----5-5--5--5--5----3-3--3--3--3--|
|-----------------1-1--1--1--1----3-3--3--3--3----1-1--1--1--1--|
  . .  .  .  .    . .  .  .  .    . .  .  .  .    . .  .  .  .    PALM MUTE x2

CHORUS

|------------------------------------------------------------------------------------------|
|------------------------------------------------------------------------------------------|
|-------------------------------------------------------------------7-7-7-7---10-10-10-10--|
|-7-7-7-7-7-7-7-7-7-7---3-3-3-3-3-3-3-3-3-3---7-7-7-7-7-7-7-7-7-7---7-7-7-7---10-10-10-10--|
|-7-7-7-7-7-7-7-7-7-7---3-3-3-3-3-3-3-3-3-3---7-7-7-7-7-7-7-7-7-7---5-5-5-5----8--8--8--8--|
|-5-5-5-5-5-5-5-5-5-5---1-1-1-1-1-1-1-1-1-1---5-5-5-5-5-5-5-5-5-5--------------------------|

|----------------------------------------------------------------------------------------|
|----------------------------------------------------------------------------------------|
|-----------------------7-7-7-7-7-7-7-7-7-7----------------------------------------------|
|-5-5-5-5-5-5-5-5-5-5---7-7-7-7-7-7-7-7-7-7---3-3-3-3-3-3-3-3-3-3---5-5-5-5-5-5-5-5-5-5--|
|-5-5-5-5-5-5-5-5-5-5---5-5-5-5-5-5-5-5-5-5---3-3-3-3-3-3-3-3-3-3---5-5-5-5-5-5-5-5-5-5--|
|-3-3-3-3-3-3-3-3-3-3-------------------------1-1-1-1-1-1-1-1-1-1---3-3-3-3-3-3-3-3-3-3--|

|---------------------------------------------------------------------------------------------------|
|---------------------------------------------------------------------------------------------------|
|-7-7-7-7-7-7-7-7-7-7--------------------------------------------------4--5---(5-REPEAT WITH BEAT)--|
|-7-7-7-7-7-7-7-7-7-7---3-3-3-3-3-3-3-3-3-3---5-5-5-5-5-5-5-5-5-5---7--4--5---(5-USING UPSTROKES-)--|
|-5-5-5-5-5-5-5-5-5-5---3-3-3-3-3-3-3-3-3-3---5-5-5-5-5-5-5-5-5-5---7--2--3---(3-----------------)--|
|-----------------------1-1-1-1-1-1-1-1-1-1---3-3-3-3-3-3-3-3-3-3---5-------------------------------|

OUTRO

|---------------------------------------------------------------|
|---------------------------------------------------------------|
|-5-5--5--5--5--------------------------------------------------| x2
|-5-5--5--5--5----3-3--3--3--3----5-5--5--5--5----3-3--3--3--3--|
|-3-3--3--3--3----3-3--3--3--3----5-5--5--5--5----3-3--3--3--3--|
|-----------------1-1--1--1--1----3-3--3--3--3----1-1--1--1--1--|
Comments