Blink 182 - Apple Shampoo Chords & Tabs

 

Apple Shampoo Chords & Tabs

Blink 182 Chords & Tabs

Version: 3 Type: Bass Tab 0 ratings
1 star 2 stars 3 stars 4 stars 5 stars
comments

Apple Shampoo Bass Tab

Blink 182 - Apple Shampoo

Intro:
(She didn’t mean to deceive you…)
G:----------------------------------
D:-----------------3-3-3-3--5-5-5-5-
A:-3-3-3-3-3-3-3-3------------------
E:----------------------------------

(the good intention that you had…)
G:----------------------------------------------------------------
D:----------------------------------------------------------------
A:-----------------8-8-8-8-8-8-8-8-8-8---------------5-5-5-5-8-8-8
E:-5-5-5-5-5-5-5-55--------------------5-5-5-5-5-5-5--------------

Verse:
00:35(And she said…)
G:--------------------------------------------
D:-----------------3-3-3-3--5-5-5-5--3-3-3-3--
A:-3-3-3-3-3-3-3-3----------------------------
E:--------------------------------------------

Crazy parts 1 
01:14 (I never wanted to hold you back...) 
G:--------------------------------------------------------------------
D:-----------------3-3-3-3-3-3-3-3------------------------------------ 
A:-0-0-0-0-0-0-0-0-----------------0-0-0-0-0-0-0-0--5-5-5-5--8-8-8-8—
E:--------------------------------------------------------------------

01:24(I know just where I stand…) 
G:------------------------------------------------------------------------------- 
D:-------------------------5-5-5-5-5-5-5-5--3-3-3-3-3-3-3-3—3-3-3-3-3-3-3-3-3-3-3
A:-3-3-3-3-3-3-3-3-3-3-3-3------------------------------------------------------- 
E:------------------------------------------------------------------------------- 
[ Tab from: http://www.guitartabs.cc/tabs/b/blink_182/apple_shampoo_btab_ver_3.html ]
01:33(I'll take what your willing...) 
G:--------------------------------------------------------------------------------------
D:--------------------------------------------3-3-3-3-3-3-3-3-3-3-3-5-5-5—5-5-5-5-5-5-5- 
A:-3-3-3-3-3-3-3-3-3-3-3--5-5-5-5-5-5-5-5-5-5-------------------------------------------
E:--------------------------------------------------------------------------------------

Crazy parts 2 
02:02(And now I realize…)
G:--------------------------------------------------------------------
D:-----------------3-3-3-3-3-3-3-3------------------------------------ 
A:-0-0-0-0-0-0-0-0-----------------0-0-0-0-0-0-0-0--5-5-5-5--8-8-8-8—
E:--------------------------------------------------------------------

02:12(Wait, where are you coming from...) 
G:---------------------------------------------------------------------------- 
D:-5-5-5-5-5-5-5-5-5-------------------3-3-3-3-3-3-3-3-3-3--5-5-5-5-5-5-5-5-5—
A:-------------------5-5-5-5-5-5-5-5-5----------------------------------------
E:---------------------------------------------------------------------------- 

02:21(And if your feeling scared…)
G:------------------------------------------------------------------- 
D:---------------3-3-3-3-3-3-3-3-3-3-3-3-3--5-5-5-5-5-5—5-5-5-5-5-5-5
A:-5-5-5-5-5-5-5-----------------------------------------------------
E:-------------------------------------------------------------------

02:30(You know that it meant everything to me)
G:---------------      ---------------------------------------------
D:---------------      -------------3-3-3-3-3-3--5-5-5-5-5--3-3-3-3-
A:------3~------- solo -3-3-3-3-3-3---------------------------------
E:---------------      ---------------------------------------------

G-----------
D-----------
A----3~-----
E-----------
Comments