Blink 182 - Anthem Chords & Tabs

 

Anthem Chords & Tabs

Blink 182 Chords & Tabs

Version: 6 Type: Tab 0 ratings
1 star 2 stars 3 stars 4 stars 5 stars
comments

Anthem Tab

Intro
e--------------------------------------------------------|
b---------------44444-44444-55555---------55555--------|
g-44444--44444--44444--44444--44444---------44444--------|
d-44444--44444--44444--44444--44444--44444--44444--44444-|X3
a-22222--22222--22222--22222--22222--44444--22222--44444-|
E------------------------------------22222---------22222-|

Interlude 
e--------------------------|
b--------------------------|
g--------------------------|
d-1---4-1-----1-----1------|
a---2-----2-------4-----2--|X2 
E-----------0---2-----0----|
[ Tab from: http://www.guitartabs.cc/tabs/b/blink_182/anthem_tab_ver_6.html ]
Bass - sounds good on guitar too
g---------------------------------|
d---1---1---4---4---1---1---4---4-|
a-22--22--22--22--22--22--22--22--|
E---------------------------------|

g---------------------------------|
d---------------------------------|
a---2---2---4---4---2---2---4---4-|x4
E-00--00--22--22--00--00--22--22--|

Ending
e---------------------------------| 
b---------------------------------|
g-------------------------------4-|
d-1---4-1---------1-1h2---------4-|
a---2-----2-------------4-------2-|
E-----------0-2-4---------2-2-2--|
                       pm - - -
Comments