Blink 182 - Anthem Chords & Tabs

 

Anthem Chords & Tabs

Blink 182 Chords & Tabs

Version: 4 Type: Tab 0 ratings
1 star 2 stars 3 stars 4 stars 5 stars
comments

Anthem Tab

|---------------------------------------------------------------|
|                         Tabbed By Gee                         |
|                 HommieGee@rockonpeople.zzn.com                |
|             rockonpeople@communities.ninemsn.com.au           |
|---------------------------------------------------------------|

Lead Tabz
Blink 182
Enema Of The State
Anthem

Intro
E|----------|----------|----------|----------|
B|----------|----------|----------|----------|
G|-44444----|-44444----|-88888----|-88888----|
D|-44444----|-44444----|-88888----|-88888----|
A|-22222----|-22222----|-66666----|-66666----|
E|----------|----------|----------|----------|

E|----------|----------|----------|----------|
B|----------|----------|----------|----------|
G|-99999----|-66666----|-99999----|-66666----|
D|-99999----|-66666----|-99999----|-66666----|
A|-77777----|-44444----|-77777----|-44444----|
E|----------|----------|----------|----------|

Verse 1
E|----------|----------|----------|----------|
B|----------|----------|----------|----------|
G|-44444----|-44444----|-44444----|-44444----|
D|-44444----|-44444----|-44444----|-44444----|
A|-22222----|-22222----|-22222----|-22222----|
E|----------|----------|----------|----------|

E|----------|----------|----------|----------|
B|----------|----------|----------|----------|
G|-99999----|-66666----|-99999----|-66666----|
D|-99999----|-66666----|-99999----|-66666----|
A|-77777----|-44444----|-77777----|-44444----|
E|----------|----------|----------|----------|

Verse 1

Chorus
E|----------|----------|----------|----------|
B|----------|----------|----------|----------|
G|-66666666-|----------|----------|----------|
D|-66666666-|-44444444-|-22222222-|-44444444-|
A|-44444444-|-44444444-|-22222222-|-44444444-|
E|----------|-22222222-|-00000000-|-22222222-|

Chorus
Chorus
Chorus

Post-Chorus 1
E|----------|----------|----------|----------|
B|----------|----------|----------|----------|
G|-44444----|-44444----|-44444----|----------|
D|-44444----|-44444----|-44444----|-2--------|
A|-22222----|-22222----|-22222----|-2--------|
E|----------|----------|----------|-0--------|
[ Tab from: http://www.guitartabs.cc/tabs/b/blink_182/anthem_tab_ver_4.html ]
Verse 2
E|----------|----------|----------|----------|
B|----------|----------|----------|----------|
G|-44444444-|-44444444-|-44444444-|-44444444-|
D|-44444444-|-44444444-|-44444444-|-44444444-|
A|-22222222-|-22222222-|-22222222-|-22222222-|
E|----------|----------|----------|----------|

E|----------|----------|----------|----------|
B|----------|----------|----------|----------|
G|-99999999-|-66666666-|-99999999-|-66666666-|
D|-99999999-|-66666666-|-99999999-|-66666666-|
A|-77777777-|-44444444-|-77777777-|-44444444-|
E|----------|----------|----------|----------|

Verse 2
Chorus
Chorus
Chorus

Post-Chorus 2
E|----------|----------|----------|----------|
B|----------|----------|----------|----------|
G|-66666666-|----------|----------|----------|
D|-66666666-|-44444444-|-22222222-|--------4-|
A|-44444444-|-44444444-|-22222222-|--------4-|
E|----------|-22222222-|-00000000-|--------2-|

Pre-Solo
E|----------|----------|----------|----------|
B|----------|----------|----------|----------|
G|-44444444-|----------|-44444444-|----------|
D|-44444444-|-22222222-|-44444444-|-44444444-|
A|-22222222-|-22222222-|-22222222-|-44444444-|
E|----------|-00000000-|----------|-22222222-|

E|----------|----------|----------|----------|
B|----------|----------|----------|----------|
G|----44444-|----------|-44444444-|----------|
D|-XXX44444-|-22222222-|-44444444-|-44444444-|
A|-XXX22222-|-22222222-|-22222222-|-44444444-|
E|-XXX------|-00000000-|----------|-22222222-|

E|----------|----------|----------|----------|
B|----------|----------|----------|----------|
G|-44444444-|----------|----------|----------|
D|-44444444-|-22222222-|-55555555-|-44444444-|
A|-22222222-|-22222222-|-55555555-|-44444444-|
E|----------|-00000000-|-33333333-|-22222222-|

Solo
E|----------|----------|----------|----------|
B|----------|----------|----------|----------|
G|----------|----------|----------|----------|
D|-1---4----|-1--------|-1--------|-1--------|
A|---2------|---2------|-----4----|-----2----|
E|----------|-----0----|---2------|---0------|

Solo
32 Beat (8 Bar) Rest
Chorus
Chorus
Chorus
Post-Chorus 2
Pre-Solo

Outro
E|----------|----------|----------|----------|
B|----------|----------|----------|----------|
G|----------|----------|----------|----------|
D|-1---4----|-1--------|-----1----|-1-2------|
A|---2------|---2------|----------|-----4----|
E|----------|-----0----|-2-4------|----------|

Final Note
E|----------|----------|
B|----------|----------|
G|-x-x-x-4~-|-~~~~~~~~-|
D|-x-x-x-4~-|-~~~~~~~~-|
A|-x-x-x-2~-|-~~~~~~~~-|
E|----------|----------|
Comments