Blink 182 - Anthem Part Two Chords & Tabs

 

Anthem Part Two Chords & Tabs

Blink 182 Chords & Tabs

Version: 9 Type: Tab 0 ratings
1 star 2 stars 3 stars 4 stars 5 stars
comments

Anthem Part Two Tab

By: Mike Lash, hawker489@aol.com

Standart Tuning

Intro/clean(I\\\'m 100% sure that the Intro is correct)
e----------------------------------
B-8---8---6---6---5---5---6---6----
G---5---5---5---5---5---5---5---5--
D----------------------------------
A----------------------------------
E----------------------------------

Verse/distortion
e------------------------------------------
B------------------------------------------
G------------------------------------------
D---0/3---2---0/3---2---0/3---2----0----0--
A-33---33---33---33---33---33---33---33----
E------------------------------------------
[ Tab from: http://www.guitartabs.cc/tabs/b/blink_182/anthem_part_two_tab_ver_9.html ]
Bridge
e----------------------------------------
B----------------------------------------
G-9---10---9---5---7---------(9--10--5)--
D-9---10---9---5---7---------(9--10--5)--
A-7----8---7---3---5---------(7---8--3)--
E----------------------------------------
(only play () part on he last time, and youll have to strum
it your self.)

Interlude
e--------------------------------------------
B--------------------------------------------
G--------------------------------------------
D-5~~~~~~~~~---------------------------------
A-3~~~~~~~~~-333333333--000000000------------
E---------------------------------111111111--
             *********  ********* *********
(~ means let ring,* means palm mute)

Pre-Chorus
e-------------------------
B-------------------------
G-------------------------
D-------------------------
A---7---------5--------3--
E-5---5-----3---3----1----

Chorus
e---------------------------------------------
B---------------------------------------------
G---------------------------------------------
D-------5-----------5------2------5-----2-----
A-3--3--3--5--3--3--3--5---0---3--3--5--0--3--
E-0--1-----3--0--1-----3-------1-----3-----1--

Pretty easy song, and I guarantee 100% correct. Like I said for some parts you\\\'ll have to strum it your self.
Comments