Blink 182 - Anthem Part Two Chords & Tabs

 

Anthem Part Two Chords & Tabs

Blink 182 Chords & Tabs

Version: 7 Type: Tab 0 ratings
1 star 2 stars 3 stars 4 stars 5 stars
comments

Anthem Part Two Tab

   
------------------------------------------------------------------------ 
Anthem Part II - Blink 182 
------------------------------------------------------------------------ 

e-mail me if you have any questions or corrections at uranium238sd@aol.com 

CHORD KEY: 

C F E G A F 
e:---------------------------------------------------------------------- 
B:---------------------------------------------------------------------- 
G:------5-------10------9----------------------------------------------- 
D:------5-------10------9-------5-------7-------3----------------------- 
A:------3-------8-------7-------5-------7-------3----------------------- 
E:------------------------------3-------5-------1----------------------- 

~~~~~~~~~~~~~~~~~~~~~~~~~~~~~~~~~~~~~~~~~~~~~~~~~~~~~~~~~~~~~~~~~~~~~~~~ 

INTRO: 

e:---------------------------------------------------------------------- 
B:--8---8---6---6---5---5---6---6--------------------------------------- 
G:----5---5---5---5---5---5---5---5------------------------------------- 
D:---------------------------------------------------------------------- 
A:---------------------------------------------------------------------- 
E:---------------------------------------------------------------------- 


RIFF THING: 

e:---------------------------------------------------------------------- 
B:---------------------------------------------------------------------- 
G:---------------------------------------------------------------------- 
D:------2-h-3------2---------3-----3------------------------------------ 
A:--3-3--------3-3-------3-3---3-3-------------------------------------- 
E:---------------------------------------------------------------------- 
    |_______________|x3 


BRIDGE: 
[ Tab from: http://www.guitartabs.cc/tabs/b/blink_182/anthem_part_two_tab_ver_7.html ]
C   F   E   C   x 3 

C   F   F 


VERSE I: 

(Bass only) 
Everything has fallen to pieces. 
(Bass only) 
Earth is dying help me Jesus. 
C   A      F 
We need guidance, we've been misled. 
C    A       F 
Young and hostile, but not stupid. 


LITTLE FILL THING: 

e:---------------------------------------------------------------------- 
B:---------------------------------------------------------------------- 
G:---------------------------------------------------------------------- 
D:----5----------------------------------------------------------------- 
A:--3---3---5-----3----------------------------------------------------- 
E:--------3---3-1------------------------------------------------------- 


VERSE II: 

(Bass only) 
Corporate leaders, politicians. 
(Bass only) 
Kids can't vote, I don't elect them. 
C    A       F 
Moms that rule the school and workplace. 
C   A F 
Sons that caution 16 is unsafe. 


LITTLE FILL THING x1 


CHORUS: 
  C    F  C    G 
We really need to see this through. 
 C    F C     G 
We never wanted to be abused. 
C (play through) 
We'll never give up, it's no use. 

If we're fucked up, you're to blame. 


BRIDGE x1 


VERSE II: 

(Bass only) 
Let this train wreck burn more slowly. 
(Bass only) 
Kids are victims in this story. 
C      A       F 
Drown our youth with useless warnings. 
C        A          F 
Teenage rules; they're fucked and boring 


LITTLE FILL THING x1 


CHORUS x1 


BASS SOLO 


CHORUS x1 


RIFF THING with INTRO end on F
Comments