Blink 182 - Anthem Part Two Chords & Tabs

 

Anthem Part Two Chords & Tabs

Blink 182 Chords & Tabs

Version: 4 Type: Tab 0 ratings
1 star 2 stars 3 stars 4 stars 5 stars
comments

Anthem Part Two Tab

Artist: Blink 182
Song: "Anthem Part Two" from Take Off Your Pants and Jacket
Tabbed by: Chad Neidt

This is an awesome song from the new album and it's pretty easy.  
Only problem is that Blink uses double tracks to make it sound 
like there are 2 guitars when there is really only one.

Intro

e-3-3-1-1-0-0-1-1---I
B--1-1-1-1-1-1-1-1--I
G-------------------I 8x
D-------------------I
A-------------------I
E-------------------I

2nd Guitar comes in after 4 Intros

e-------------------------------------------I
B-------------------------------------------I
G-------------------------------------------I 4x
D------2h3---2---2h3---2---2h3---2---5---5--I
A---3-3---3-3-3-3---3-3-3-3---3-3-3-3-3-3---I
E-------------------------------------------I

Then is the second part of the Intro:

e-------------------------------------------I
B-------------------------------------------I
G--9-9-9---10-10-10--9-9-9---5-5-5---7-7-7--I 3X
D--x-x-x---x--x--x---x-x-x---x-x-x---x-x-x--I
A--7-7-7---8--8--8---7-7-7---3-3-3---5-5-5--I
E-------------------------------------------I

Then:

e----------------------------------------------------I
B----------------------------------------------------I
G--9-9-9---10-10-10--5-5-5-5-5-5-5-5----5------------I 1x
D--x-x-x---x--x--x---x-x-x-x-x-x-x-x----5-let ring---I
A--7-7-7---8--8--8---3-3-3-3-3-3-3-3----3------------I
E----------------------------------------------------I

Then the words come in "Everything has fallen to pieces..."
Midway into the verse the guitar goes:
[ Tab from: http://www.guitartabs.cc/tabs/b/blink_182/anthem_part_two_tab_ver_4.html ]
e----------------------------------------------------------
B---------palm mute----------------------------------------
G--9-9-9--5-5-5-5-5-5-5-5-5-5-5-5-5-5-5-5------------------
D--9-9-9--5-5-5-5-5-5-5-5-5-5-5-5-5-5-5-5---7-7-7-7-7-7-7-7
A--7-7-7--3-3-3-3-3-3-3-3-3-3-3-3-3-3-3-3---7-7-7-7-7-7-7-7
E-------------------------------------------5-5-5-5-5-5-5-5

e--------------------------I
B--------------------------I
G--10-10-10-10-10-10-10-10-I 2x
D--10-10-10-10-10-10-10-10-I
A--8--8--8--8--8--8--8--8--I
E--------------------------I

Bridge:

e-----------------------------I
B-----------------------------I
G-----------------------------I
D-----------------------------I
A----7--------5--------3------I
E--5---5---3----3---1---------I

Chorus:

e-----------------------------------------------------
B-----------------------------------------------------
G--9-9-9-9-9-9--10-10-10-10-10-10---------------------
D--x-x-x-x-x-x--x--x--x--x--x--x---10-10-10-10-10-10--
A--7-7-7-7-7-7--8--8--8--8--8--8---10-10-10-10-10-10--
E----------------------------------8--8--8--8--8--8---


e--------------I
B--------------I
G--------------I 2X
D--5-5-5-5-5-5-I
A--5-5-5-5-5-5-I
E--3-3-3-3-3-3-I  

Then it changes at "We'll never give up" to this (palm muted):

e-------------------------------------------------------------------
B-------------------------------------------------------------------
G--5-5-5-5-5-5-5-5--10-10-10-10-10-10-10-10-------------------------
D--5-5-5-5-5-5-5-5--10-10-10-10-10-10-10-10-10-10-10-10-10-10-10-10-
A--3-3-3-3-3-3-3-3--8--8--8--8--8--8--8--8--10-10-10-10-10-10-10-10-
E-------------------------------------------8--8--8--8--8--8--8--8--

e------------------I
B------------------I
G------------------I 2x
D--5-5-5-5-5-5-5-5-I
A--5-5-5-5-5-5-5-5-I
E--3-3-3-3-3-3-3-3-I












Comments