Blink 182 - Anthem Part Two Chords & Tabs

 

Anthem Part Two Chords & Tabs

Blink 182 Chords & Tabs

Version: 3 Type: Tab 2 ratings
1 star 2 stars 3 stars 4 stars 5 stars
comments

Anthem Part Two Tab

Blink 182
Anthem Part Two
Take Off Your Pants And Jacket
Tabbed By James Low whatisaturnip@yahoo.co.uk
Standard Tuning (EADGBE)

--------------------------------------------------------
--------------------------------------------------------
--------------------------------------------------------
--5-5-5-5-----------------------------------------------
--3-3-3-3-----------------------------------------------
--------------------------------------------------------

--------------------------------------------------------
--8---8---6---6---5---5---6---6-------------------------
----5---5---5---5---5---5---5---5-----------------------
--------------------------------------------------------
--------------------------------------------------------
--------------------------------------------------------
[ Tab from: http://www.guitartabs.cc/tabs/b/blink_182/anthem_part_two_tab_ver_3.html ]
--------------------------------------------------------
--------------------------------------------------------
--------------------------------------------------------
------0h3-----2-----0h3-----2---5-5-5-5----5-5-5-5------
--3-3-----3-3---3-3-----3-3-----3-3-3-3----3-3-3-3------
--------------------------------------------------------

--------------------------------------------------------
--------------------------------------------------------
--9---10--9---5---7----------5--------------------------
--x---x---x---x---x----------x--------------------------
--7---8---7---3---5----------3--------------------------
--------------------------------------------------------

--------------------------------------------------------
--------------------------------------------------------
--9--9--------------------------------------------------
--9--9--55555555--22222222------------------------------
--7--7--33333333--00000000--33333333--------------------
----------------------------11111111--------------------

--------------------------------------------------------
--------------------------------------------------------
--------5-----------------------------------------------
-----3--5--5--------------------------------------------
--3--3--3--5--------------------------------------------
--0--1-----3--------------------------------------------
Comments