Blink 182 - Anthem Part Two Chords & Tabs

 

Anthem Part Two Chords & Tabs

Blink 182 Chords & Tabs

Version: 18 Type: Tab 0 ratings
1 star 2 stars 3 stars 4 stars 5 stars
comments

Anthem Part Two Tab

   
This is the CORRECT WAY of playing anthem part 2. I've recorded the 
perfromances live. The one in trl and the access. Believe me, this 
is the correct way. Just listen VERY carefully to the music.

BY:JOSEPH 
   BLOODY_PIMPLE2HOTMAIL.COM

Standard tuning EBGDAE

INTRO
GTR 1
E------------------
B-8-8-6-6-5-5-6-6--
G--5-5-5-5-5-5-5-5- 8X
D------------------
A------------------
E------------------

GTR 2 (PLAY THIS DURING THE GTR 1 PART. STRUM UP AND DOWN FOR THIS PART)
E---------------
B---------------
G-555----------- 3X 
D-555-----------
A-333-----------
E---------------

GTR 3 P.M. (PALM MUTE)
E---------------------------------------------
B---------------------------------------------
G--------------------------------------------- 3X
D-----0h3---2-----0h3---2-----0h3---2----0---0
A-3-3----3-3---3-3---3-3---3-3--3-3--3-3-3-3-
E---------------------------------------------

P.M.                                   (STRUM UP AND DOWN)
E-----------------------------------   E--------
B-----------------------------------   B--------
G-----------------------------------   G-555x555
D----0h3---2-----0h3---2-----0h3---2   D-555x555
A-3-3---3-3---3-3---3-3---3-3---3-3-   A-333x333
E-----------------------------------   E--------

E-------------------------------------------    
B-------------------------------------------     
G-999\10101010\9999\5555\777777------------- 3X 
D-xxx--x-x-x-x-xxxx-xxxx-xxxxxx-------------     
A-777\-8-8-8-8\7777\3333\555555-------------     
E-------------------------------------------     

E-------------------------------------------    
B-------------------------------------------     
G-99\101010\9\55555555555555555------------- 3X 
D-xx--x-x-x-x-xxxxxxxxxxxxxxxxx------------- (LET LAST CHORD RING) 
A-77\-8-8-8\7\33333333333333333-------------     
E-------------------------------------------   


VERSE (PLAY AFTER BASS)P.M.
E-----  E------------------------------
B-----  B------------------------------
G-999-  G-555555555555----------------- 2X
D-999-  D-5555555555557777777733333333- 
A-777-  A-3333333333337777777733333333-
E-----  E-------------5555555511111111-
[ Tab from: http://www.guitartabs.cc/tabs/b/blink_182/anthem_part_two_tab_ver_18.html ]
GTR BRIDGE                   BASS BRIDGE
E-------                     G-------------
B-------                     D-------------
G-4----- (LET IT RING)       A--7---5---3--
D-2-7-5-                     E-5-5-3-3-1-1-
A---5-3-
E-------

CHORUS
E----------------------------------
B----------------------------------
G-55555555--------55555555---------2X
D-55555555333333335555555555555555- 
A-33333333333333333333333355555555-
E---------11111111--------33333333-

2nd CHORUS P.M.
"WE NVR GIVE UP,   ITS NO   USE   
E-----------------------------------           
B-----------------------------------          
G------22222--------55555555--------         
D------22222333333335555555555555555            
A------00000333333333333333355555555
E-----------11111111--------33333333           

"IF WE'RE FUCKED UP. YOU'RE TO BLAME
E----------------------
B----------------------
G-2222222222222222222--
D-22222222222222222223- (LET IT RING)
A-00000000000000000003-
E--------------------1-

E---
B---  PLAY THIS RIGHT BEFORE THE BASS SOLO
G-5-  AND RIGHT AFTER TOM SAYS YOU'RE TO BLAME
D-5-  (LET IT RING)
A-3-
E---


BASS SOLO (AFTER TOM SAYS "EVERYTHING HAS FALL'N TO PIECES" 
2 TIMES, YOU START TO PLAY THIS:)

E----
B----
G-5-- 26X (I THINK ^_^;)
D-x-- 
A-3--
E----

OUTRO
GTR 1 P.M.
E---------------------------------------------
B---------------------------------------------
G--------------------------------------------- 3X
D-----0h3---2-----0h3---2-----0h3---2----0---0
A-3-3----3-3---3-3---3-3---3-3--3-3--3-3-3-3-
E---------------------------------------------

E-----------------------------------
B-----------------------------------
G-----------------------------------
D----0h3---2-----0h3---2-----0h3---2
A-3-3---3-3---3-3---3-3---3-3---3-3-
E-----------------------------------

ENDING
E---                   E---
B---                   B---
G--- (LET IT RING) OR  G-5- (LET IT RING)
D-3-                   D-5-  
A-3-                   A-3-
E-1-                   E--- 

GTR 2
E-------------------------------
B-8-8-6-6-5-5-6-6--8-8-6-6-5-5-6
G--5-5-5-5-5-5-5-5--5-5-5-5-5-5- (LET THE LAST 6 RING) 
D-------------------------------
A-------------------------------
E-------------------------------

THAT'S IT! JUST FIGURE OUT THE ORDER HOW IT GOES WHICH IS EASY. IF YOU HAVE ANY QUESTIONS 
EMAIL ME!! BLOODY_PIMPLE@HOTMAIL.COM THIS IS THE CORRECT WAY TO PLAY IT. I'LL TAB OUT THE BASS FOR THIS SOON.
Comments