Blink 182 - Anthem Part Two Chords & Tabs

 

Anthem Part Two Chords & Tabs

Blink 182 Chords & Tabs

Version: 17 Type: Tab 0 ratings
1 star 2 stars 3 stars 4 stars 5 stars
comments

Anthem Part Two Tab

   
Title: Anthem Part Two
Artist: Blink 182
Album: Take Off Your Pants And Jacket
Transcribed by: Cameron Lapp
E-mail: Headless_Duck77@hotmail.com

x= Palm Mute
~=Let Ring

Intro:
E:-------------------
B:--8-8-6-6-5-5-6-6--
G:---5-5-5-5-5-5-5-5- x4
D:-------------------
A:-------------------
E:-------------------

2nd intro part(all notes on the "a" string are muted)
E:---------------------------------------
B:---------------------------------------
G:---------------------------------------
D:----2-3---2---2-3---2---2-3---2---0---0
A:-3-3---3-3-3-3---3-3-3-3---3-3-3-3-3-3-
E:---------------------------------------

Verse 1:
E:----------------------
B:----------------------
G:-9-9-10-10-9-5-7-7-7-7
D:-x-x--x--x-x-x-x-x-x-x x3
A:-7-7--8--8-7-3-5-5-5-5
E:----------------------

on the 4th repeat of verse 1 do this
E:---------------------------
B:---------------------------
G:9-9-10-10-3-3-3-3-3-3-3-3-3~
D:x-x--x--x-x-x-x-x-x-x-x-x-x~
A:7-7--8--8-5-5-5-5-5-5-5-5-5~
E:---------------------------

Verse 2: (come in on 3rd time around)
E:------------------------------------
B:------------------------------------
G:-5-5-5-5-5-5-5-5-5-5----------------
D:-5-5-5-5-5-5-5-5-5-5-7-7-7-7-3-3-3-3 x2
A:-3-3-3-3-3-3-3-3-3-3-7-7-7-7-3-3-3-3
E:---------------------5-5-5-5-1-1-1-1
          |___________________________|
              Palm Mute

Bass riff:
E:-----------
B:-----------
G:----------- x1
D:--5--------
A:-3-3-5---3-
E:----3-3-1-1

Verse 2: (come in on 3rd time around except for the first note)
E:---------------------------------------
B:---------------------------------------
G:5~--5-5-5-5-5-5-5-5-5-5----------------
D:5~--5-5-5-5-5-5-5-5-5-5-7-7-7-7-3-3-3-3 x2
A:3~--3-3-3-3-3-3-3-3-3-3-7-7-7-7-3-3-3-3
E:------------------------5-5-5-5-1-1-1-1

Bass riff:
E:-----------
B:-----------
G:----------- 
D:--5-------- x1
A:-3-3-5---3-
E:----3-3-1-1


Chorus part 1:
E:--------------------------------------------------
B:--------------------------------------------------
G:-----------------------5-5-5-5-5-5-5--------------
D:-7-7-7-7-7-7-3-3-3-3-3-5-5-5-5-5-5-5-5-5-5-5-5-5-5 x2
A:-7-7-7-7-7-7-3-3-3-3-3-3-3-3-3-3-3-3-5-5-5-5-5-5-5
E:-5-5-5-5-5-5-1-1-1-1-1---------------3-3-3-3-3-3-3

Chorus part 2 (palm muted):
E:--------------------------------------------------
B:--------------------------------------------------
G:-----------------------5-5-5-5-5-5-5--------------
D:-7-7-7-7-7-7-3-3-3-3-3-5-5-5-5-5-5-5-5-5-5-5-5-5-5 x2
A:-7-7-7-7-7-7-3-3-3-3-3-3-3-3-3-3-3-3-5-5-5-5-5-5-5
E:-5-5-5-5-5-5-1-1-1-1-1---------------3-3-3-3-3-3-3
[ Tab from: http://www.guitartabs.cc/tabs/b/blink_182/anthem_part_two_tab_ver_17.html ]
Verse 1:
E:----------------------
B:----------------------
G:-9-9-10-10-9-5-7-7-7-7
D:-x-x--x--x-x-x-x-x-x-x x3
A:-7-7--8--8-7-3-5-5-5-5
E:----------------------

on the 4th repeat of verse 1 do this
E:---------------------------
B:---------------------------
G:9-9-10-10-3-3-3-3-3-3-3-3-3~
D:x-x--x--x-x-x-x-x-x-x-x-x-x~
A:7-7--8--8-5-5-5-5-5-5-5-5-5~
E:---------------------------

Verse 2: (come in on 3rd time around)
E:------------------------------------
B:------------------------------------
G:-5-5-5-5-5-5-5-5-5-5----------------
D:-5-5-5-5-5-5-5-5-5-5-7-7-7-7-3-3-3-3 x2
A:-3-3-3-3-3-3-3-3-3-3-7-7-7-7-3-3-3-3
E:---------------------5-5-5-5-1-1-1-1
          |___________________________|
               Palm Mute

Bass riff:
E:-----------
B:-----------
G:----------- 
D:--5-------- x1
A:-3-3-5---3-
E:----3-3-1-1


Chorus part 1:
E:--------------------------------------------------
B:--------------------------------------------------
G:-----------------------5-5-5-5-5-5-5--------------
D:-7-7-7-7-7-7-3-3-3-3-3-5-5-5-5-5-5-5-5-5-5-5-5-5-5 x2
A:-7-7-7-7-7-7-3-3-3-3-3-3-3-3-3-3-3-3-5-5-5-5-5-5-5
E:-5-5-5-5-5-5-1-1-1-1-1---------------3-3-3-3-3-3-3

Chorus part 2 (palm muted):
E:--------------------------------------------------
B:--------------------------------------------------
G:-----------------------5-5-5-5-5-5-5--------------
D:-7-7-7-7-7-7-3-3-3-3-3-5-5-5-5-5-5-5-5-5-5-5-5-5-5 x2
A:-7-7-7-7-7-7-3-3-3-3-3-3-3-3-3-3-3-3-5-5-5-5-5-5-5
E:-5-5-5-5-5-5-1-1-1-1-1---------------3-3-3-3-3-3-3

Bass solo:

G:-----------------------------------------------
D:-----------------------------------------------
A:-3-3-3-3-3-3-3-3-3-3-3-3-3-3-------------------
E:----------------------------5-5-5-5-5-1-1-1-1-1

Chorus part 1:
E:--------------------------------------------------
B:--------------------------------------------------
G:-----------------------5-5-5-5-5-5-5--------------
D:-7-7-7-7-7-7-3-3-3-3-3-5-5-5-5-5-5-5-5-5-5-5-5-5-5 x2
A:-7-7-7-7-7-7-3-3-3-3-3-3-3-3-3-3-3-3-5-5-5-5-5-5-5
E:-5-5-5-5-5-5-1-1-1-1-1---------------3-3-3-3-3-3-3

Chorus part 2 (palm muted):
E:--------------------------------------------------
B:--------------------------------------------------
G:-----------------------5-5-5-5-5-5-5--------------
D:-7-7-7-7-7-7-3-3-3-3-3-5-5-5-5-5-5-5-5-5-5-5-5-5-5 x2
A:-7-7-7-7-7-7-3-3-3-3-3-3-3-3-3-3-3-3-5-5-5-5-5-5-5
E:-5-5-5-5-5-5-1-1-1-1-1---------------3-3-3-3-3-3-3

Outro(all notes on the "a" string are muted)
E:---------------------------------------
B:---------------------------------------
G:---------------------------------------
D:----2-3---2---2-3---2---2-3---2---0---0
A:-3-3---3-3-3-3---3-3-3-3---3-3-3-3-3-3-
E:---------------------------------------
Comments