Blink 182 - Anthem Part Two Chords & Tabs

 

Anthem Part Two Chords & Tabs

Blink 182 Chords & Tabs

Version: 16 Type: Tab 0 ratings
1 star 2 stars 3 stars 4 stars 5 stars
comments

Anthem Part Two Tab

   
This is the CORRECT WAY of playing anthem part 2. I've recorded the 
perfromances live. The one in trl and the access. Believe me, this 
is the correct way. Just listen VERY carefully to the music.

BY:JOSEPH 
   BLOODY_PIMPLE2HOTMAIL.COM

Standard tuning EBGDAE

INTRO
GTR 1
E------------------
B-8-8-6-6-5-5-6-6--
G--5-5-5-5-5-5-5-5- 8X
D------------------
A------------------
E------------------

GTR 2 (PLAY THIS DURING THE GTR 1 PART. STRUM UP AND DOWN FOR THIS PART)
E----------------
B----------------
G-5555----------- 3X 
D-5555-----------
A-3333-----------
E----------------

GTR 3 P.M. (PALM MUTE)
E---------------------------------------------
B---------------------------------------------
G--------------------------------------------- 3X
D-----0h3---2-----0h3---2-----0h3---2----0---0
A-3-3----3-3---3-3---3-3---3-3--3-3--3-3-3-3-
E---------------------------------------------

P.M.                                   (STRUM UP AND DOWN)
E-----------------------------------   E--------
B-----------------------------------   B--------
G-----------------------------------   G-555x555
D----0h3---2-----0h3---2-----0h3---2   D-555x555
A-3-3---3-3---3-3---3-3---3-3---3-3-   A-333x333
E-----------------------------------   E--------

E-------------------------------------------     E-------------------
B-------------------------------------------     B-------------------
G-999\10101010\9999\5555\777777------------- 3X  G-99\1010\9\55555555
D-xxx--x-x-x-x-xxxx-xxxx-xxxxxx-------------     D-xx--x-x-x-xxxxxxxx
A-777\-8-8-8-8\7777\3333\555555-------------     A-77\-8-8\7\33333333
E-------------------------------------------     E-------------------

VERSE (PLAY AFTER BASS)P.M.
E-----  E------------------------------
B-----  B------------------------------
G-999-  G-555555555555----------------- 2X
D-999-  D-5555555555557777777733333333- 
A-777-  A-3333333333337777777733333333-
E-----  E-------------5555555511111111-
[ Tab from: http://www.guitartabs.cc/tabs/b/blink_182/anthem_part_two_tab_ver_16.html ]
GTR BRIDGE                   BASS BRIDGE
E-------                     G-------------
B-------                     D-------------
G------- (LET IT RING)       A--7---5---3--
D-4-----                     E-5-5-3-3-1-1-
A-2-7-5-
E---5-3-

CHORUS
E----------------------------------
B----------------------------------
G-55555555--------55555555---------2X
D-55555555333333335555555555555555- 
A-33333333333333333333333355555555-
E---------11111111--------33333333-

AFTER CHORUS P.M.
E--------------------------------------  E---  
B--------------------------------------  B---
G-55555--------55555555--------2222222-  G-5- (LET IT RING)
D-555553333333355555555555555552222222-  D-5- 
A-333333333333333333333555555550000000-  A-3-
E------11111111--------33333333--------  E---

BASS SOLO (AFTER TOM SAYS "EVERYTHING HAS FALL'N TO PIECES" 2 TIMES, YOU START TO PLAY THIS:)

E----
B----
G-5-- 26X (I THINK ^_^;)
D-x-- 
A-3--
E----

OUTRO
GTR 1 P.M.
E---------------------------------------------
B---------------------------------------------
G--------------------------------------------- 3X
D-----0h3---2-----0h3---2-----0h3---2----0---0
A-3-3----3-3---3-3---3-3---3-3--3-3--3-3-3-3-
E---------------------------------------------

E-----------------------------------
B-----------------------------------
G-----------------------------------
D----0h3---2-----0h3---2-----0h3---2
A-3-3---3-3---3-3---3-3---3-3---3-3-
E-----------------------------------

GTR 2
E----------------------------------
B-8-8-6-6-5-5-6-6--8-8-6-6-5-5-6-6-
G--5-5-5-5-5-5-5-5--5-5-5-5-5-5-5-- (LET THE LAST 6 RING) 
D----------------------------------
A----------------------------------
E----------------------------------

ENDING
E---                   E---
B---                   B---
G--- (LET IT RING) OR  G-5- (LET IT RING)
D-3-                   D-5-  
A-3-                   A-3-
E-1-                   E--- 

THAT'S IT! JUST FIGURE OUT THE ORDER HOW IT GOES WHICH IS EASY. IF YOU HAVE ANY QUESTIONS EMAIL ME!! 
BLOODY_PIMPLE@HOTMAIL.COM
THIS IS THE CORRECT WAY TO PLAY IT. I'LL TAB OUT THE BASS FOR THIS SOON.
Comments