Blink 182 - Anthem Part Two Chords & Tabs

 

Anthem Part Two Chords & Tabs

Blink 182 Chords & Tabs

Version: 4 Type: Bass Tab 0 ratings
1 star 2 stars 3 stars 4 stars 5 stars
comments

Anthem Part Two Bass Tab

Blink 182:Anthem Part 2
Take Off You Pants And Jacket
Tabbed by : Newgreen18241
2x
G:--------------------------------
D:--------------------------------
A:-3333---------------------------
E:--------------------------------

1x
G:--------------------------------
D:-----------------------33333333-
A:-3333-5555555500000000----------
E:--------------------------------

5x
G:-----------------------------------
D:--------------------------33333333-
A:-333333335555555500000000----------
E:-----------------------------------

1x
G:-----------------------------------
D:-----------------------------------
A:-333333333333333300000000----------
E:--------------------------11111111-

1x
G:--------------------------------------
D:--------------------------------------
A:-333333333333333300000000-------------
E:--------------------------1(let ring)-

1x
G:-----------------------------------
D:-----------------------------------
A:-333333333333333300000000----------
E:--------------------------11111111-

1x
G:-----------------------------------
D:--------------------------33333333-
A:-333333333333333300000000----------
E:-----------------------------------

2x
G:-----------------------------------
D:-----------------------------------
A:-333333333333333300000000----------
E:--------------------------11111111-

1x
G:-----------------------------------
D:-----------------------------------
A:--7---5---3(let ring)---------
E:-5-5-3-3-1---------------------

1x
G:-----------------------------------
D:-----------------------------------
A:-333333333333333300000000----------
E:--------------------------11111111-

1x
G:-----------------------------------
D:--------------------------33333333-
A:-333333333333333300000000----------
E:-----------------------------------

2x
G:-----------------------------------
D:-----------------------------------
A:-333333333333333300000000----------
E:--------------------------11111111-

1x
G:-----------------------------------
D:-----------------------------------
A:--7---5---3(let ring)---------
E:-5-5-3-3-1---------------------

2x
G:-------------------------------------
D:-------------------------------------
A:-------------------33333333----------
E:-0000000011111111-----------33333333-
[ Tab from: http://www.guitartabs.cc/tabs/b/blink_182/anthem_part_two_btab_ver_4.html ]
1x
G:--------------------------------------
D:--------------------------------------
A:-00000000-----------33333333----------
E:----------111111111----------33333333-

1x
G:----------------------------
D:----------------------------
A:-00000000-------------------
E:----------1-----------------

1x
G:-----------------------------------
D:-----------------------------------
A:-333333333333333300000000----------
E:--------------------------11111111-

1x
G:------------------------------------------
D:------------------------------------------
A:-333333333333333300000000-----------------
E:--------------------------1(let ring)-----

4x
G:-----------------------------------
D:-----------------------------------
A:-333333333333333300000000----------
E:--------------------------11111111-

1x
G:-----------------------------------
D:-----------------------------------
A:--7---5----3(let ring)---------
E:-5-5-3-3-1---------------------

2x
G:------------------------------------
D:------------------------------------
A:------------------33333333----------
E:-0000000011111111----------33333333-

1x
G:--------------------------------------
D:--------------------------------------
A:-00000000-----------33333333----------
E:----------111111111----------33333333-

1x
G:----------------------------
D:----------------------------
A:-00000000-------------------
E:----------1-----------------

4x
G:-----------------------------------
D:-----------------------------------
A:-333333333333333300000000----------
E:--------------------------11111111-
2x
G:-17----17----17----17----17----17----17---
D:----17----17----17----17----17----17----17
A:------------------------------------------
E:------------------------------------------


2x
G:------------------------------------
D:------------------------------------
A:------------------33333333----------
E:-0000000011111111----------33333333-

1x
G:--------------------------------------
D:--------------------------------------
A:-00000000-----------33333333----------
E:----------111111111----------33333333-

1x
G:----------------------------
D:----------------------------
A:-00000000-------------------
E:----------1-----------------

3x
G:--------------------------------------
D:-----------00000000-------------------
A:-333333333----------00000000----------
E:-----------------------------11111111-

1x
G:-----------------------------------------
D:-----------00000000----------------------
A:-333333333----------00000000-------------
E:-----------------------------1(let ring)-
Comments