Blink 182 - Anthem Part Chords & Tabs

 

Anthem Part Chords & Tabs

Blink 182 Chords & Tabs

Version: 1 Type: Tab 1 rating
1 star 2 stars 3 stars 4 stars 5 stars
comments

Anthem Part Tab

Band: Blink 182
Album: Enema of the state
Song: Anthem (Part 1)

LEGEND: 
M = Palm mute
> = Pickslide
~ = Let ring
Intro
1|------------------------------------------------------------------------------------------|
2|------------------------4-4-4-4-4--4-4-4-4-4----------------------------------------------|
3|--4-4-4-4-4--4-4-4-4-4--4-4-4-4-4--4-4-4-4-4--9-9-9-9-9-------------9-9-9-9-9-------------|
4|--4-4-4-4-4--4-4-4-4-4--4-4-4-4-4--4-4-4-4-4--9-9-9-9-9--2-2-2-2-2--9-9-9-9-9--2-2-2-2-2--|
5|--2-2-2-2-2--2-2-2-2-2--2-2-2-2-2--2-2-2-2-2--7-7-7-7-7--2-2-2-2-2--7-7-7-7-7--2-2-2-2-2--|
6|---------------------------------------------------------0-0-0-0-0-------------0-0-0-0-0--|

Riff 1
1|-------------------------------------------------------------------|
2|-------------------------------------------------------------------|
3|-------------------------------------------------------------------|
4|--6-6-6-6-6-6-6-6-4-4-4-4-4-4-4-4-2-2-2-2-2-2-2-2-4-4-4-4-4-4-4-4--|
5|--6-6-6-6-6-6-6-6-4-4-4-4-4-4-4-4-2-2-2-2-2-2-2-2-4-4-4-4-4-4-4-4--|
6|--4-4-4-4-4-4-4-4-2-2-2-2-2-2-2-2-0-0-0-0-0-0-0-0-2-2-2-2-2-2-2-2--|

Riff 0
1|--------------------------------------|
2|--------------------------------------|
3|--4-4-4-4-4--4-4-4-4-4--4-4-4-4-4-----|
4|--4-4-4-4-4--4-4-4-4-4--4-4-4-4-4--2--|
5|--2-2-2-2-2--2-2-2-2-2--2-2-2-2-2--2--|
6|-----------------------------------0--|

Riff 2
1|--------------------------------------------------------------------------|
2|--------------------------------------------------------------------------|
3|--4-----------------------------------------------------------------------|
4|--4-x32--2-2-2-2-2-2-2-2-4-4-4-4-4-4-4-4-2-2-2-2-2-2-2-2-2-4-4-4-4-4-4-4--|
5|--2------2-2-2-2-2-2-2-2-4-4-4-4-4-4-4-4-2-2-2-2-2-2-2-2-4-4-4-4-4-4-4-4--|
6|---------0-0-0-0-0-0-0-0-2-2-2-2-2-2-2-2-0-0-0-0-0-0-0-0-2-2-2-2-2-2-2-2--|
[ Tab from: http://www.guitartabs.cc/tabs/b/blink_182/anthem_part_tab.html ]
Riff 3
1|---------------------------------------------------------------------|---------|
2|---------------------------------------------------------------------|---------|
3|--4-4-4-4-4-4-4-4------------------4-4-4-4-4-4-4-4-------------------|---------|
4|--4-4-4-4-4-4-4-4-2-2-2-2-2-2-2-2--4-4-4-4-4-4-4-4--4-4-4-4-4-4-4-4--|---------|
5|--2-2-2-2-2-2-2-2-2-2-2-2-2-2-2-2--2-2-2-2-2-2-2-2--4-4-4-4-4-4-4-4--|--4-4-4--|
6|------------------0-0-0-0-0-0-0-0-------------------2-2-2-2-2-2-2-2--|--2-2-2--|
                                                                          m m m

Riff 4
1|----------------------------------------------------------------------|
2|----------------------------------------------------------------------|
3|--4-4-4-4-4-4-4-4-----------------------------------------------------|
4|--4-4-4-4-4-4-4-4--2-2-2-2-2-2-2-2--6-6-6-6-6-6-6-6--4-4-4-4-4-4-4-4--|
5|--2-2-2-2-2-2-2-2--2-2-2-2-2-2-2-2--6-6-6-6-6-6-6-6--4-4-4-4-4-4-4-4--|
6|-------------------0-0-0-0-0-0-0-0--4-4-4-4-4-4-4-4--2-2-2-2-2-2-2-2--|

SOLO
1|----------------------------------|
2|----------------------------------|
3|----------------------------------|
4|--1---4----1--------1------1------|
5|----2--------2----------4------2--|
6|---------------0------2------0----|

BASS INTERLUDE
1|--------------------------------------------------------------------------------------------------|
2|--------------------------------------------------------------------------------------------------|
3|--------------------------------------------------------------------------------------------------|
4|------1-----1-----4-----4-----1-----1-----4-----4-------------------------------------------------|
5|--2-2---2-2---2-2---2-2---2-2---2-2---2-2---2-2-------2-----2-----4-----4-----2-----2-----4-----4-|
6|--------------------------------------------------0-0---0-0---2-2---2-2---0-0---0-0---2-2---2-2---|

Guitar after bass part
1|------------|
2|------------|
3|------------|
4|-->>>>>>>>--|
5|-->>>>>>>>--|
6|-->>>>>>>>--|

END RIFF

1|----------------|
2|----------------|
3|------------4~--|
4|--4-4-4-----4~--|
5|--4-4-4-----2~--|
6|--2-2-2---------|
    m m m

Order:
Intro
Riff 1
Riff 0
Riff 2
Riff 1
Riff 3
Riff 4
SOLO 
BASS INTERLUDE
Guitar after bass part
Riff 1
Riff 3
Riff 4
Enf Riff





Comments