Blink 182 - Anthem Chords & Tabs

 

Anthem Chords & Tabs

Blink 182 Chords & Tabs

Version: 1 Type: Bass Tab 1 rating
1 star 2 stars 3 stars 4 stars 5 stars
comments

Anthem Bass Tab

From: "Brett Romero" 
Corrections by Gooseman: Beginning was a little off

                             ANTHEM - Blink-182
>G|---------------------------------------------
>D|---------------------------------------------
>A|-2-2-2-2-2--2-2-2-2-2--2-2-2-2-2--2-2-2-2-2--
>E|---------------------------------------------

>G|---------------------------------------------
>D|---------------------------------------------
>A|---------------------------------------------
>E|--0-0-0-0-0--0-0-0-0-0--0-0-0-0-0--0-0-0-0-0-

>G|-------------------------------------------------------------------
>D|--------------------------------------------------1----------------
>A|-2-2-2-2-2--2-2-2-2-2--2-2-2-2-2--4-4-4----------------------------
>E|-------------------------------------------------------------------

cont.
>G|-------------------------------------------------------------------
>D|-2-2-2-2-2--4-4-4-4-4--2-2-2-2-2--4-4-4-4-4------------------------
>A|-------------------------------------------------------------------
>E|-------------------------------------------------------------------

>Pre Chorus ("good things come to those who wait)
>G|-------------------------------------------------------------------
>D|-------------------------------------------------------------------
>A|--------2----------2-4-------2----------2-4------------------------
>E|---4-4----4--2-2-------0-0----0--2-2-------------------------------

>Riff after first pre-chorus
>G|-------------------------------------------------------------------
>D|-------------------------------------------------------------------
>A|--2-2-2-2-2--2-2-2-2-2--2-2-2-2-2----------------------------------
>E|-------------------------------------------0-----------------------
[ Tab from: http://www.guitartabs.cc/tabs/b/blink_182/anthem_btab.html ]
>2nd and all other verses
>G|-------------------------------------------------------------------
>D|------------------------------1-1-2-2-2-2-4-4-4-4-2-2-2-2-4-4-4-4--
>A|--2-2-2-2-2-2-2-2-2-2-2-2-4-4--------------------------------------
>E|-------------------------------------------------------------------

>Chorus ("you don't belong")
>G|-------------------------------------------------------------------
>D|------------------2-2-2-2-2-2-2-2----------------------------------
>A|--2-2-2-2-2-2-2-2-----------------2-2-2-2-2-2-2-2------------------
>E|--------------------------------------------------2-2-2-2-2-2-2-2--

cont.
>G|-------------------------------------------------------------------
>D|-----------------2-2-2-2-2-2---------------------------------------
>A|-X-X-X-2-2-2-2-2-------------2-2-2-2-2-2---------------------------
>E|-----------------------------------------2-2-2-2-2-2-2-2-----------

>The "I time bomb" part
>G|-------------------------------------------------------------------
>D|------------------2-2-2-2-2-2-2-2----------------------------------
>A|--2-2-2-2-2-2-2-2--------------------------------------------------
>E|----------------------------------4-4-4-4-4-4-4-4-2-2-2-2-2-2-2-2--

>Part after the first "I time bomb" part
>G|-------------------------------------------------------------------
>D|-------------------------------------------------------------------
>A|--2-2-2-2-2-2-2-2--------------------------------------------------
>E|-------------------0-0-0-0-0-0-0-0-2-2-2-2-2-2-2-2-0-0-0-0-0-0-0-0-

Bass solo
>G|-------------------------------------------------------------------
>D|-----1-----1-----4-----4-----1-----1-----4-----4-------------------
>A|-2-2---2-2---2-2---2-2---2-2---2-2---2-2---2-2---------------------
>E|-------------------------------------------------------------------

cont.
>G|-------------------------------------------------------------------
>D|-------------------------------------------------------------------
>A|-------2-----2-----4-----4-----2-----2-----4-----4-----------------
>E|--0-0----0-0---2-2---2-2---0-0---0-0---2-2---2-2-------------------

Comments