Blink 182 - Another Girl Another Planet Chords & Tabs

 

Another Girl Another Planet Chords & Tabs

Blink 182 Chords & Tabs

Version: 1 Type: Bass Tab 2 ratings
1 star 2 stars 3 stars 4 stars 5 stars
comments

Another Girl Another Planet Bass Tab

   
Another Girl Another Planet
Artist: Blink 182
Album: Greatest Hits
Tab By: atawb 
Tuning (E A D G)

~=Ring

Intro/Verse                                             x2
G|--------------------------------------------------------|
D|--------------------------------------------------------|
A|------------------5-5-5-5-5-5-5-5--7-7-7-7--5--3-3-3-3--|
E|-3-3-3-3-3-3-3-3----------------------------------------|
[ Tab from: http://www.guitartabs.cc/tabs/b/blink_182/another_girl_another_planet_btab.html ]
Chorus                                                 x4
G|-------------------------------------------------------|
D|-------------------------------------------------------|
A|------------------5-5-5-5-5-5-5-5--7-7--3-3--7~~--5~~--|
E|-3-3-3-3-3-3-3-3---------------------------------------|

Bridge                                               
G|------------|
D|------------|
A|--5~~--3~~--|
E|------------|

Interlude                                               x4
G|--------------------------------------------------------|
D|--------------------------------------------------------|
A|------------------5-5-5-5-5-5-5-5--7-7-7-7--5--3-3-3-3--|
E|-3-3-3-3-3-3-3-3----------------------------------------|

Intro x3
Verse
Chorus 
Verse 
Chorus 
Bridge 
Interlude 
Verse 
Chorus 
Verse(Outro) x2		
Comments