Blink 182 - Always Chords & Tabs

 

Always Chords & Tabs

Blink 182 Chords & Tabs

Version: 8 Type: Tab 0 ratings
1 star 2 stars 3 stars 4 stars 5 stars
comments

Always Tab

   
Band: Blink 182
Song: Always
Album: Blink 182

Tabbed By: $2 Food Stamp
Email: Halo2k@forerunners.org

Tuning: Standard

Note:This is the FULL always song, it's been time coded and the lyrics are at the
bottom. This is the 100% correction to play Always and I did this by ear. That other
version got some stuff right but the intro and some other stuff are wrong so I'll tab
them the right way. 

... - Palm Mute

          Intro (tabbed for guitar)
(0:10-0:15)Gtr. I
e|-----------------------------------------------------------------|
B|-----------------------------------------------------------------|
G|-----------------------------------------------------------------|
D|-4-4-4-4-4-4-4-4-4-4-4-4-4-4-4-4-2-2-2-2-2-2-2-2-2-2-2-2-2-2-2-2-|
A|-2-2-2-2-2-2-2-2-4-4-4-4-4-4-4-4-2-2-2-2-2-2-2-2-2-2-2-2-2-2-2-2-|
E|-2-2-2-2-2-2-2-2-2-2-2-2-2-2-2-2-4-4-4-4-4-4-4-4-0-0-0-0-0-0-0-0-|     

(0:16-0:21)
e|-----------------------------------------------------------------|
B|-----------------------------------------------------------------|
G|-----------------------------------------------------------------|
D|-4-4-4-4-4-4-4-4-4-4-4-4-4-4-4-4-6-6-6-6-6-6-6-6-2-2-2-2-2-2-2-2-|
A|-2-2-2-2-2-2-2-2-4-4-4-4-4-4-4-4-6-6-6-6-6-6-6-6-2-2-2-2-2-2-2-2-|
E|-2-2-2-2-2-2-2-2-2-2-2-2-2-2-2-2-4-4-4-4-4-4-4-4-0-0-0-0-0-0-0-0-|


           Verse 1 (tabbed for guitar)
(0:22-0:45)Gtr. I
e|-----------------------------------------------------------------|
B|-----------------------------------------------------------------|
G|-----------------------------------------------------------------|
D|-----------------------------------------------------------------|
A|-2-2-2-2-2-2-2-2-4-4-4-4-4-4-4-4-2-2-2-2-2-2-2-2-2-2-2-2-2-2-2-2-|
E|-2-2-2-2-2-2-2-2-2-2-2-2-2-2-2-2-0-0-0-0-0-0-0-0-0-0-0-0-0-0-0-0-|

(0:34-0:45)
(distortion) Gtr. II
e|------|
B|------|
G|------|Just play the whole (0:34-0:45)
D|------|part of the song
A|------|
E|-4444-|
   ....

           Pre Chorus (clean)
(0:46-0:57)Gtr. I
e|-------------------------------------------|
B|-------4---4-------4---4-------4-----------|
G|-----4---4-------4---4-------4---4---4---4-|2x
D|-------------------------------------------|
A|-2-2---------4-4-------------------0---0---|
E|-------------------------4-4---------------|

           Chorus (distortion)
(0:58-1:10)Gtr. II
e|------------------------------------------------------------------|
B|------------------------------------------------------------------|
G|-4-4-4-4-4-4-4-4-8-8-8-8-8-8-8-8----------------------------------|
D|-4-4-4-4-4-4-4-4-8-8-8-8-8-8-8-8-6-6-6-6-6-6-6-6-2-2-2-2-2-2-2-2--|2x
A|-2-2-2-2-2-2-2-2-6-6-6-6-6-6-6-6-6-6-6-6-6-6-6-6-2-2-2-2-2-2-2-2--|
E|---------------------------------4-4-4-4-4-4-4-4-0-0-0-0-0-0-0-0--|


           Pre Verse (clean)
(1:11-1:22)Gtr. I
e|-------------------------------------------|
B|-------4---4-------4---4-------4-----------|
G|-----4---4-------4---4-------4---4---4---4-|2x
D|-------------------------------------------|
A|-2-2---------4-4-------------------0---0---|
E|-------------------------4-4---------------|


           Verse (little distortion)
(1:23-1:47)Gtr. I
e|-------------------------|
B|-------------------------|
G|-------------------------|4x
D|-------------------------|
A|-6----6-------6--6-------|
E|---8----8-6-8------8-6-4-|

[ Tab from: http://www.guitartabs.cc/tabs/b/blink_182/always_tab_ver_8.html ]
           Pre Chorus (clean)
(1:48-2:11)Gtr. I
e|-------------------------------------------|
B|-------4---4-------4---4-------4-----------|
G|-----4---4-------4---4-------4---4---4---4-|4x
D|-------------------------------------------|
A|-2-2---------4-4-------------------0---0---|
E|-------------------------4-4---------------|


           Chorus (distortion)
(2:12-2:35)Gtr. II
e|------------------------------------------------------------------|
B|------------------------------------------------------------------|
G|-4-4-4-4-4-4-4-4-8-8-8-8-8-8-8-8----------------------------------|
D|-4-4-4-4-4-4-4-4-8-8-8-8-8-8-8-8-6-6-6-6-6-6-6-6-2-2-2-2-2-2-2-2--|4x
A|-2-2-2-2-2-2-2-2-6-6-6-6-6-6-6-6-6-6-6-6-6-6-6-6-2-2-2-2-2-2-2-2--|
E|---------------------------------4-4-4-4-4-4-4-4-0-0-0-0-0-0-0-0--|


           Bridge (distortion)
(2:36-2:47)Gtr. II
e|------------------------------------------------------------------|
B|------------------------------------------------------------------|
G|-4-4-4-4-4-4-4-4-3-3-3-3-3-3-3-3-4-4-4-4-4-4-4-4-4-9-9-9-9-4-4-4--|
D|-x-x-x-x-x-x-x-x-x-x-x-x-x-x-x-x-x-x-x-x-x-x-x-x-x-x-x-x-x-x-x-x--|
A|-2-2-2-2-2-2-2-2-1-1-1-1-1-1-1-1-2-2-2-2-2-2-2-2-2-7-7-7-7-2-2-2--|
E|------------------------------------------------------------------|

           Bridge (clean)
(2:36-2:47)Gtr. I
e|------------------------------------|
B|-4---4---4---4-5-(3x)-4---4-5-4---4-|
G|---4---4---4------------4-------4---|
D|------------------------------------|
A|------------------------------------|
E|------------------------------------|

           Bridge Pt.2 (distortion)
(2:48-2:59)Gtr. II
e|-----------------------|
B|-----------------------|
G|-----------------------|
D|-----------------------|
A|-6--4--2--2h4-6--4--2--|
E|-----------------------|


           Chorus (distortion)
(3:13-3:38)Gtr. II
e|------------------------------------------------------------------|
B|------------------------------------------------------------------|
G|-4-4-4-4-4-4-4-4-8-8-8-8-8-8-8-8----------------------------------|
D|-4-4-4-4-4-4-4-4-8-8-8-8-8-8-8-8-6-6-6-6-6-6-6-6-2-2-2-2-2-2-2-2--|4x
A|-2-2-2-2-2-2-2-2-6-6-6-6-6-6-6-6-6-6-6-6-6-6-6-6-2-2-2-2-2-2-2-2--|
E|---------------------------------4-4-4-4-4-4-4-4-0-0-0-0-0-0-0-0--|


           Outro (clean)
(3:39-4:02)Gtr. I
e|--------------------------------------|
B|-4---4---4---4-5-(3x)-4---4-5-4---4-5-|
G|---4---4---4------------4-------4-----|
D|--------------------------------------|4x
A|--------------------------------------|
E|--------------------------------------|

Thats all the tabs for the song.. PLEASE RATE IT! Thank you and heres the lyrics..


           Lyrics
I've been here before a few times 
And I'm quite aware we're dying 
And your hands they shake with goodbyes 
And I'll take you back if you'd have me 
So here I am I'm trying 
So here I am are you ready 

Come on let me hold you touch you feel you 
Always 
Kiss you taste you all night 
Always 

And I'll miss your laugh your smile 
I'll admit I'm wrong if you'd tell me 
I'm so sick of fights I hate them 
Lets start this again for real 

So here I am I'm trying 
So here I am are you ready 
So here I am I'm trying 
So here I am are you ready 

Come on let me hold you touch you feel you 
Always 
Kiss you taste you all night 
Always 
Come on let me hold you touch you feel you 
Always 
Kiss you taste you all night 
Always 

I've been here before a few times 
And I'm quite aware we're dying 

Come on let me hold you touch you feel you 
Always 
Kiss you taste you all night 
Always 
Come on let me hold you touch you feel you 
Always 
Kiss you taste you all night 
Always
Comments