Blink 182 - Always Chords & Tabs

 

Always Chords & Tabs

Blink 182 Chords & Tabs

Version: 7 Type: Tab 0 ratings
1 star 2 stars 3 stars 4 stars 5 stars
comments

Always Tab

   
Always
STANDERED TUNING, HOORAY
This is a pretty easy song, but once again, too many
damn guitars, oh well, i got um all, like 3 or 4

Guitar 1
Verse - kicks in right after the word "hands"


e|--------------------------------------------------------------|
B|--------------------------------------------------------------|
G|--------------------------------------------------------------| 2x
D|--------------------------------------------------------------|
A|--------------------------------------------------------------|
E|--7-7-7-7-7-7-7-7-6-6-6-6-6-6-6-6/-4-4-4-4-4-4-4-4-4-4-4-4-4--|
Palm Mute This all                               *

The second time around, replace the "4"s with "2"s at the star

Pre chours
Guitar 1
Let this ring while guitar 2 does its thing

E|---|
B|---|
G|-4-|
D|-x-|
A|-2-|
E|---|

Guitar 2
With a chours effect

e|----------------------------------------------------------------------|
B|----------4------4----------4-------4----------4----4-----------------|
G|------4--------4-------4----------4--------4------4-------4------4----|
D|----------------------------------------------------------------------|
A|--2-2---2---2-----4-4----4----4---------------------------------------|
E|---------------------------------------4-4---4---4----0-0----0-0-0--0-|


Then guitar 1 does that little strum again and on to the chours

Chours

Guitar 1

e|-------------------------------------------------------------------|
B|12-12-12-12-12-12-11-11-11-11-11-11-11-9-9-9-9-9-9-9---------------|
G|-x--x--x--x--x--x--x--x--x--x--x--x--x-x-x-x-x-x-x-x-9-9-9-9-9-9-9-| 2x
D|-9--9--9--9--9--9--8--8--8--8--8--8--8-6-6-6-6-6-6-6-x-x-x-x-x-x-x-|
A|-----------------------------------------------------7-7-7-7-7-7-7-|
E|-------------------------------------------------------------------|

Guitar 2


e|-------------------------------------------------------------------|
B|-------------------------------------------------------------------|
G|--4-4-4-4-4-4-4-4-8-8-8-8-8-8-8-8----------------------------------| 2x
D|--4-4-4-4-4-4-4-4-x-x-x-x-x-x-x-x-6-6-6-6-6-6-6-6-2-2-2-2-2-2-2-2--|
A|--2-2-2-2-2-2-2-2-6-6-6-6-6-6-6-6-6-6-6-6-6-6-6-6-2-2-2-2-2-2-2-2--|
E|----------------------------------4-4-4-4-4-4-4-4-0-0-0-0-0-0-0-0--|


Now play the pre-chours part now and then go on to the second verse:

Second Verse
Guitar 2
With chours effect


e|------------------------------------|
B|------------------------------------|
G|------------------------------------|
D|------------------------------------| 4x
A|--6----6---4-----4----6-------------|
E|----7---------6----------4--2/4-----|



Now play the pre-chouse riff 4 times then go to the chours 2
times and then the interlude:

Guitar 2

Riff A
e|-------------------------------------------------------------------|
B|--4---4---4---4-5-4---4---4---4-5-4---4---4---4-5-4---4-5-4---4-5--|
G|----4---4---4-------4---4---4-------4---4---4-------4-------4------|
D|-------------------------------------------------------------------|
A|-------------------------------------------------------------------|
E|-------------------------------------------------------------------|

Guitar 1
[ Tab from: http://www.guitartabs.cc/tabs/b/blink_182/always_tab_ver_7.html ]
e|-------------------------------------------------------------------|
B|-------------------------------------------------------------------|
G|--4-4-4-4-4-4-4-4/3-3-3-3-3-3-3-3/4-4-4-4-4-4-4-4-4/8-8-8-8/4-4-4--|
D|--x-x-x-x-x-x-x-x-x-x-x-x-x-x-x-x-x-x-x-x-x-x-x-x-x-x-x-x-x-x-x-x--|
A|--2-2-2-2-2-2-2-2/1-1-1-1-1-1-1-1/2-2-2-2-2-2-2-2-2/6-6-6-6/2-2-2--|
E|-------------------------------------------------------------------|

Guitar 3

e|-------------------------------------------------------------------|
B|-------------------------------------------------------------------|
G|--4-4-4-4-4-4-4-4/6-6-6-6-6-6-6-6/4-4-4-4-4-4-4-4-4/8-8-8-8/4-4-4--|
D|--x-x-x-x-x-x-x-x-x-x-x-x-x-x-x-x-x-x-x-x-x-x-x-x-x-x-x-x-x-x-x-x--|
A|--2-2-2-2-2-2-2-2/4-4-4-4-4-4-4-4/2-2-2-2-2-2-2-2-2/6-6-6-6/2-2-2--|
E|-------------------------------------------------------------------|

Keep riff A going then play this:

Guitar 1

e|--------------------------------------------------------------------|
B|--------------------------------------------------------------------|
G|--4-4-4-4-4-4-4-4/3-3-3-3-3-3-3-3/4-4-4-4-4-4-4-4-4/8-8-8-8/4-4/6/8-|
D|--x-x-x-x-x-x-x-x-x-x-x-x-x-x-x-x-x-x-x-x-x-x-x-x-x-x-x-x-x-x-x-x-x-|
A|--2-2-2-2-2-2-2-2/1-1-1-1-1-1-1-1/2-2-2-2-2-2-2-2-2/6-6-6-6/2-2/4-6-|
E|--------------------------------------------------------------------|
                                                  
Guitar 3

e|-------------------------------------------------------------------|
B|-------------------------------------------------------------------|
G|--4-4-4-4-4-4-4-4/6-6-6-6-6-6-6-6/4-4-4-4-4-4-4-4-4/8-8-8-8/4-4-4--|
D|--x-x-x-x-x-x-x-x-x-x-x-x-x-x-x-x-x-x-x-x-x-x-x-x-x-x-x-x-x-x-x-x--|
A|--2-2-2-2-2-2-2-2/4-4-4-4-4-4-4-4/2-2-2-2-2-2-2-2-2/6-6-6-6/2-2-2--|
E|-------------------------------------------------------------------|
 
Now for that little slide thing he does, remember guitar 1 
already stareted it now continue with this part:

Guitar 1

e|------------------------------|
B|------------------------------|
G|-/6----/4--4/6/8----/6---/6---|
D|--x-----x--x-x-x-----x----x---| 
A|-/4----/2--2/4/6----/4---/2---|
E|------------------------------|

The timing isnt shown, but its easy to figure out.
Then the breakdown, so no guitar, the play the chours 2 times
The the outro which is really easy:

Ourto

Guitar 1

e|-------------------------------------------------------------------|
B|-------------------------------------------------------------------|
G|--4-4-4-4-4-4-4-4-4-4-4-4-4-4-4-4-4-4-4-4-4-4-4-4-4-4-4-4-4-4-4-4--|
D|--x-x-x-x-x-x-x-x-x-x-x-x-x-x-x-x-x-x-x-x-x-x-x-x-x-x-x-x-x-x-x-x--|
A|--2-2-2-2-2-2-2-2-2-2-2-2-2-2-2-2-2-2-2-2-2-2-2-2-2-2-2-2-2-2-2-2--|
E|-------------------------------------------------------------------|

Play this until end of song, this next part is a synthasizer
arranged for guitar

Guitar 2

e|11---------11----------11---------12-11---------11-------11-------11-------12-11-----16--14|
B|----14-12-------14-12------14--12--------12-14-----14-12----14-12----14-12--------12-------|
G|-------------------------------------------------------------------------------------------|
D|-------------------------------------------------------------------------------------------|
A|-------------------------------------------------------------------------------------------|
E|-------------------------------------------------------------------------------------------|



done sucka
next please
Comments