Blink 182 - Always Chords & Tabs

 

Always Chords & Tabs

Blink 182 Chords & Tabs

Version: 6 Type: Tab 0 ratings
1 star 2 stars 3 stars 4 stars 5 stars
comments

Always Tab

This song is one of my favorites.... It is on Blink 182's new album called
"Blink 182"  Play without distortion... But when you get to the solo part
add a little distortion... it will sound just like it...


Intro:
|---------------------------------|
|00000000-2222222-4444444-22222222|
|---------------------------------|
|---------------------------------|2x
|---------------------------------|
|---------------------------------|


Second intro after the first intro Play for the verse

|----------------66666666-44444444|
|0000000-22222222-----------------|
|---------------------------------|Repeat for 1st verse
|---------------------------------|
|---------------------------------|
|---------------------------------|


Build up for chorus

|-------------44----0---------------|
|-22----44--------------------------|
|-----------------------------------|
|---4-4---4-4---4-4--4--------------|1x
|----4-4---4-4---4-4--4-------------|
|-----------------------------------|


Chorus

|-------------------55555555--00000000-|
|-22222222-44444444-55555555--77777777-|
|-xxxxxxxx-xxxxxxxx--------------------|1x
|-44444444-66666666--------------------|
|--------------------------------------|
|--------------------------------------|

After Chorus 
|-------------44----0---------------|
|-22----44--------------------------|
|-----------------------------------|
|---4-4---4-4---4-4--4--------------|2x
|-----------------------------------|

Second verse 

|--7---7-----2-4--------------------|
|-6-6-4-6-5-4-----------------------|
|-----------------------------------|Repeat as many times needed
|-----------------------------------|
|-----------------------------------|
|-----------------------------------|

Build up to chorus
[ Tab from: http://www.guitartabs.cc/tabs/b/blink_182/always_tab_ver_6.html ]
|-------------44----0---------------|
|-22----44--------------------------|
|-----------------------------------|
|---4-4---4-4---4-4--4--------------|2x
|-----------------------------------|


Chorus

|-------------------55555555--00000000-|
|-22222222-44444444-55555555--77777777-|
|-xxxxxxxx-xxxxxxxx--------------------|2x
|-44444444-66666666--------------------|
|--------------------------------------|
|--------------------------------------|

After that play this (I don't remember the word for this part but)

|---------------------------------------------|
|-22222222-33333333-22222222--666-22-44-------|
|-xxxxxxxx-xxxxxxxx-xxxxxxxx--xxx-xx-xx-------|
|-44444444-11111111-44444444--888-44-66-------|2x
|---------------------------------------------|
|---------------------------------------------|

Solo play with a little distortion

|---------------------------------------------|
|-6-4-2---2-4-6---4--2------------------------|
|-x------------------x------------------------|
|-8------------------4------------------------|1x
|---------------------------------------------|
|---------------------------------------------|


Chorus

|-------------------55555555--00000000-|
|-22222222-44444444-55555555--77777777-|
|-xxxxxxxx-xxxxxxxx--------------------|
|-44444444-66666666--------------------|2x
|--------------------------------------|
|--------------------------------------|


|---------------------------------------------|
|-66666666-9-66666666-9-66666666-9-6-9-6-9-6-9|
|-xxxxxxxx-x-xxxxxxxx-x-xxxxxxxx-x-x-x-x-x-x-x|
|-88888888-7-88888888-7-88888888-7-8-7-8-7-8-7| Repeat till ending
|---------------------------------------------|
|---------------------------------------------|


Well that's it if any correstions please E-Mail me at RM4Element@aol.com... Thank you
Comments