Blink 182 - Always Chords & Tabs

 

Always Chords & Tabs

Blink 182 Chords & Tabs

Version: 5 Type: Tab 0 ratings
1 star 2 stars 3 stars 4 stars 5 stars
comments

Always Tab

Artist: Blink 182
Song Title: Always
Album: Blink 182
Tuning: Standard

Verse 1
e-------------------------------------------------------------------
B-------------------------------------------------------------------
G-------------------------------------------------------------------
D-------------------------------------------------------------------
A--9-9-9-9-9-9-9-9-9-9-9-9-9-9-9-9-6-6-6-6-6-6-6-6-4-4-4-4-4-4-4-4--
E--7-7-7-7-7-7-7-7-6-6-6-6-6-6-6-6-4-4-4-4-4-4-4-4-2-2-2-2-2-2-2-2--

Pre/After Chorus
e-----------------------------------------------------------
B---------4----4-------4-----4--------4----4----------------
G------4-----4-------4-----4-------4-----4--------4------4--
D-----------------------------------------------------------
A--2-2-----------4-4----------------------------------------
E------------------------------4-4------------0-0----0-0----

Chorus
e-------------------------------------------------------------------
B-------------------------------------------------------------------
G--4-4-4-4-4-4-4-4-8-8-8-8-8-8-8-8----------------------------------
D--4-4-4-4-4-4-4-4-8-8-8-8-8-8-8-8-6-6-6-6-6-6-6-6-2-2-2-2-2-2-2-2--
A--2-2-2-2-2-2-2-2-6-6-6-6-6-6-6-6-6-6-6-6-6-6-6-6-2-2-2-2-2-2-2-2--
E----------------------------------4-4-4-4-4-4-4-4-0-0-0-0-0-0-0-0--

Verse 2
e--------------------------------------------------------------
B--------------------------------------------------------------
G--------------------------------------------------------------
D--------------------------------------------------------------
A--6-------6---------6------------6-------6---------6----------
E----7-------9--6--9----4--2-4------7-------9--6--9----4--2-4--
[ Tab from: http://www.guitartabs.cc/tabs/b/blink_182/always_tab_ver_5.html ]
Interlude
Guitar 1
e-------------------------------------------------------------------
B-------------------------------------------------------------------
G--4-4-4-4-4-4-4-4-3-3-3-3-3-3-3-3-4-4-4-4-4-4-4-4-4-9-9-9-9-4-4-4--
D--x-x-x-x-x-x-x-x-x-x-x-x-x-x-x-x-x-x-x-x-x-x-x-x-x-x-x-x-x-x-x-x--
A--2-2-2-2-2-2-2-2-1-1-1-1-1-1-1-1-2-2-2-2-2-2-2-2-2-7-7-7-7-2-2-2--
E-------------------------------------------------------------------

Guitar 2
e-------------------------------------------------------------------
B--4---4---4---4-5-4---4---4---4-5-4---4---4---4-5-4---4-5-4---4-5--
G----4---4---4-------4---4---4-------4---4---4-------4-------4------
D-------------------------------------------------------------------
A-------------------------------------------------------------------
E-------------------------------------------------------------------
Outro
Guitar 1
e-------------------------------------------------------------------
B-------------------------------------------------------------------
G--4-4-4-4-4-4-4-4-4-4-4-4-4-4-4-4-4-4-4-4-4-4-4-4-4-4-4-4-4-4-4-4--
D--x-x-x-x-x-x-x-x-x-x-x-x-x-x-x-x-x-x-x-x-x-x-x-x-x-x-x-x-x-x-x-x--
A--2-2-2-2-2-2-2-2-2-2-2-2-2-2-2-2-2-2-2-2-2-2-2-2-2-2-2-2-2-2-2-2--
E-------------------------------------------------------------------

Guitar 2
e-------------------------------------------------------------------
B--4---4---4---4-5-4---4---4---4-5-4---4---4---4-5-4---4-5-4---4-5--
G----4---4---4-------4---4---4-------4---4---4-------4-------4------
D-------------------------------------------------------------------
A-------------------------------------------------------------------
E-------------------------------------------------------------------

That be all, have fun
Comments