Blink 182 - Always Chords & Tabs

 

Always Chords & Tabs

Blink 182 Chords & Tabs

Version: 4 Type: Tab 0 ratings
1 star 2 stars 3 stars 4 stars 5 stars
comments

Always Tab

Blink 182 - Always
Album - Untitled Album
Tabbed by - JOE Fan#1 of Blink182
blink182rcj@hotmail.com


Intro
e|---------------------------
B|---------------------------
G|---------------------------
D|--4-4----6-6----2-2--------
A|--4-4----6-6----2-2--------
E|--2-2----4-4----0-0--------
 

Verse 1
e|--------------------------------
B|--------------------------------
G|--666666----44444-/-6-----------
D|--xxxxxx----xxxxx-/-x----7777---
A|--444444----22222-/-4----7777---
E|-------------------------5555---


Chorus 
e|---------------------------
B|---------------------------
G|---------------------------
D|--4-4----6-6----2-2--------
A|--4-4----6-6----2-2--------
E|--2-2----4-4----0-0--------
 
[ Tab from: http://www.guitartabs.cc/tabs/b/blink_182/always_tab_ver_4.html ]
2nd Verse (It is More Bass than Guitar but it still playing the same verse)
e|--------------------------------
B|--------------------------------
G|--666666----44444-/-6-----------
D|--666666----44444-/-6----7777---
A|--444444----22222-/-4----7777---
E|-------------------------5555---


Chorus 
e|---------------------------
B|---------------------------
G|---------------------------
D|--4-4----6-6----2-2--------
A|--4-4----6-6----2-2--------
E|--2-2----4-4----0-0--------
 

Interlude/Bridge
e|------------------------    |---------------
B|------------------------    |---------------
G|--7777------------------    |--7777--2222---
D|--xxxx----7777----4444-- X3 |--xxxx--xxxx---  X1
A|--5555----xxxx----xxxx--    |--5555--4444---
E|----------5555----2222--    |---------------
 


Outro
e|-------------------------------
B|-------------------------------
G|-------------------------------
D|--4/6/7/9/7--7/9/11/12/11/9/7--
A|--x/x/x/x/x--x/x/x/x- /x/x/x---
E|--2/4/5/7/5--5/7/9/10-/9/7/5---
Comments