Blink 182 - Always Chords & Tabs

 

Always Chords & Tabs

Blink 182 Chords & Tabs

Version: 12 Type: Tab 0 ratings
1 star 2 stars 3 stars 4 stars 5 stars
comments

Always Tab

Always - Blink 182
Standard Tuning
Tabbed By YoYoJoe

Intro
Guitar 1
|-----------------------------------------------------------------|
|-----------------------------------------------------------------|
|-----------------------------------------------------------------|
|-4-4-4-4-4-4-4---4-4-4-4-4-4-4---2-2-2-2-2-2-2---2-2-2-2-2-2-2---|
|-2-2-2-2-2-2-2---4-4-4-4-4-4-4---2-2-2-2-2-2-2---2-2-2-2-2-2-2---|
|-2-2-2-2-2-2-2-0-2-2-2-2-2-2-2-0-4-4-4-4-4-4-4-0-0-0-0-0-0-0-0-0-|

Verse 1
Guitar 1 (Guitar 1 plays it 4 times, on the third and fourth guitar
2 plays it distorted and palm muted)
|-----------------------------------------------------------------|
|-----------------------------------------------------------------|
|-----------------------------------------------------------------|
|-----------------------------------------------------------------|
|-2-2-2-2-2-2-2---4-4-4-4-4-4-4---2-2-2-2-2-2-2-2-2-2-2-2-2-2-2---|
|-2-2-2-2-2-2-2-0-2-2-2-2-2-2-2-0-0-0-0-0-0-0-0-0-0-0-0-0-0-0-0-0-|

Bridge
Guitar 1
|-----------------------------------------------------------------|
|---------4-----4---------4-----4---------4-----4-----------------|
|-----4-------4-------4-------4-------4-------4-------4-------4---|
|-----------------------------------------------------------------|
|-2-2---2---2-----4-4---4---4-------------------------------------|
|---------------------------------4-4---4---4-----0-0---0-0-0---0-|

Guitar 2
|-----------------------------------------------------------------|
|-----------------------------------------------------------------|
|---5-------------------------------------------------------------|
|--5--------------------------------------------------------------|
|-3---------------------------------------------------------------|
|-----------------------------------------------------------------|

Guitar 3
|-----------------------------------------------------------------|
|-----------------------------------------------------------------|
|-----------------------------------------------------------------|
|-----------------------------------------------------------------|
|-2-2-2-2-2-2-2---4-4-4-4-4-4-4---4-4-4-4-4-4-4---2-2-2-2-2-2-2---|
|-2-2-2-2-2-2-2-0-2-2-2-2-2-2-2-0-4-4-4-4-4-4-4-0-0-0-0-0-0-0-0-0-|

Chorus
Guitar 1
|-----------------------------------------------------------------|
|-----------------------------------------------------------------|
|-----------------8-8-8-8-8-8-8-----------------------------------|
|-9-9-9-9-9-9-9---8-8-8-8-8-8-8---6-6-6-6-6-6-6---2-2-2-2-2-2-2---|
|-9-9-9-9-9-9-9---6-6-6-6-6-6-6-0-6-6-6-6-6-6-6---2-2-2-2-2-2-2---|
|-7-7-7-7-7-7-7-0-----------------4-4-4-4-4-4-4-0-0-0-0-0-0-0-0-0-|

Guitar 2
|-----------------------------------------------------------------|
|-----------------------------------------------------------------|
|-----------------8-8-8-8-8-8-8-8---------------------------------|
|-9-9-9-9-9-9-9-9-x-x-x-x-x-x-x-x-6-6-6-6-6-6-6-6-2-2-2-2-2-2-2-2-|
|-x-x-x-x-x-x-x-x-6-6-6-6-6-6-6-6-x-x-x-x-x-x-x-x-x-x-x-x-x-x-x-x-|
|-7-7-7-7-7-7-7-7-----------------4-4-4-4-4-4-4-4-0-0-0-0-0-0-0-0-|

After-chorus
Guitar 1
|-----------------------------------------------------------------|
|---------4-----4---------4-----4---------4-----4-----------------|
|-----4-------4-------4-------4-------4-------4-------4-------4---|
|-----------------------------------------------------------------|
|-2-2---2---2-----4-4---4---4-------------------------------------|
|---------------------------------4-4---4---4-----0-0---0-0-0---0-|

Guitar 2 Lets Ring

Guitar 3
|-----------------------------------------------------------------|
|-----------------------------------------------------------------|
|-----------------------------------------------------------------|
|-----------------------------------------------------------------|
|-2-2-2-2-2-2-2---4-4-4-4-4-4-4---4-4-4-4-4-4-4---2-2-2-2-2-2-2---|
|-2-2-2-2-2-2-2-0-2-2-2-2-2-2-2-0-4-4-4-4-4-4-4-0-0-0-0-0-0-0-0-0-|

Verse 2
Guitar 1 (w/chorus effect)
|---------------------------------|
|---------------------------------|
|---------------------------------|
|-1-----1-------------------------|
|-----3---3---1-3--1--------------|
|---------------------4-4\3-4-----|

(Bridge X2)
[ Tab from: http://www.guitartabs.cc/tabs/b/blink_182/always_tab_ver_12.html ]
Interlude
Guitar 1
|-----------------------------------------------------------------|
|-4---4---4---4-5-4---4---4---4-5-4---4---4---4-5-4---4-5-4---4-5-|
|---4---4---4-------4---4---4-------4---4---4-------4-------4-----|
|-----------------------------------------------------------------|
|-----------------------------------------------------------------|
|-----------------------------------------------------------------|

Guitar 2
|-----------------------------------------------------------------|
|-----------------------------------------------------------------|
|-4-4-4-4-4-4-4-4-3-3-3-3-3-3-3-3-4-4-4-4-4-4-4-4-4/9-9-9-9\4-4-4-|
|-x-x-x-x-x-x-x-x-x-x-x-x-x-x-x-x-x-x-x-x-x-x-x-x-x-x-x-x-x-x-x-x-|
|-2-2-2-2-2-2-2-2-1-1-1-1-1-1-1-1-2-2-2-2-2-2-2-2-2/7-7-7-7\2-2-2-|
|-----------------------------------------------------------------|

Guitar 1
|-----------------------------------------------------------------|
|-----------------------------------------------------------------|
|-4---------------------------------------------------------------|
|-----------------------------------------------------------------|
|-----------------------------------------------------------------|
|-----------------------------------------------------------------|
Guitar 2
|-----------------------------------------------------------------|
|-----------------------------------------------------------------|
|-----------------------------------------------------------------|
|-----------------------------------------------------------------|
|-6-------4-------2---2h4-4/6-------4-------2---------------------|
|-----------------------------------------------------------------|

Final Chorus
Guitar 1
|-----------------------------------------------------------------|
|-----------------------------------------------------------------|
|-----------------8-8-8-8-8-8-8-----------------------------------|
|-9-9-9-9-9-9-9---8-8-8-8-8-8-8---6-6-6-6-6-6-6---2-2-2-2-2-2-2---|
|-9-9-9-9-9-9-9---6-6-6-6-6-6-6-0-6-6-6-6-6-6-6---2-2-2-2-2-2-2---|
|-7-7-7-7-7-7-7-0-----------------4-4-4-4-4-4-4-0-0-0-0-0-0-0-0-0-|

Guitar 2
|-----------------------------------------------------------------|
|-----------------------------------------------------------------|
|-----------------8-8-8-8-8-8-8-8---------------------------------|
|-9-9-9-9-9-9-9-9-x-x-x-x-x-x-x-x-6-6-6-6-6-6-6-6-2-2-2-2-2-2-2-2-|
|-x-x-x-x-x-x-x-x-6-6-6-6-6-6-6-6-x-x-x-x-x-x-x-x-x-x-x-x-x-x-x-x-|
|-7-7-7-7-7-7-7-7-----------------4-4-4-4-4-4-4-4-0-0-0-0-0-0-0-0-|

Guitar 3 (w/chorus effect, On Last 2 Times)
|-12--------------------------------------------------------------|
|---------------------------------12----------------14------------|
|-----------------------------------------------------------------|
|-----------------------------------------------------------------|
|-----------------------------------------------------------------|
|-----------------------------------------------------------------|

Outro
Guitar 1
|----------------------------------------------------------------------|
|-4---4---4---4-5-4---4---4---4-5-4---4---4---4-5-4---4-5-4---4-5------|
|---4---4---4-------4---4---4-------4---4---4-------4-------4-----4...-|
|----------------------------------------------------------------------|
|----------------------------------------------------------------------|
|----------------------------------------------------------------------|

Guitar 3 (w/chorus effect)
|-12----------------------15-14-------------------|
|-------------------------------------------------|
|-------------------------------------------------|
|-------------------------------------------------|
|-------------------------------------------------|
|-------------------------------------------------|

|-11-11-11----------------11-11-11----------------|
|----------14-14-14-12-12----------14-14-14-12-12-|
|-------------------------------------------------|
|-------------------------------------------------|
|-------------------------------------------------|
|-------------------------------------------------|

|-11-11-11----------------14p12\11----------------|
|----------14-14-14-12-12----------12-12-12-14-14-|
|-------------------------------------------------|
|-------------------------------------------------|
|-------------------------------------------------|
|-------------------------------------------------|

|-11-11-11----------------11-11-11----------------|
|----------14-14-14-12-12----------14-14-14-12-12-|
|-------------------------------------------------|
|-------------------------------------------------|
|-------------------------------------------------|
|-------------------------------------------------|

|-11-11-11----------------14p12\11--12---15-14...-|
|----------14-14-14-12-12-------------------------|
|-------------------------------------------------|
|-------------------------------------------------|
|-------------------------------------------------|
|-------------------------------------------------|
Comments