Blink 182 - Always Chords & Tabs

 

Always Chords & Tabs

Blink 182 Chords & Tabs

Version: 11 Type: Tab 0 ratings
1 star 2 stars 3 stars 4 stars 5 stars
comments

Always Tab

   
ALWAYS
BLINK 182
WORDS AND MUSIC BY TRAVIS BARKER. TOM DE LONGE AND MARK HOPPUS
TABBED BY: "CHARLES POWN"
WWW.BLANKS.TK

INTRO

 GTR 1 FIG 1
- --------------------------------------------------------------------|
- --------------------------------------------------------------------|
- --------------------------------------------------------------------|
- --------------------------------------------------------------------|
- 4-4-4-4-4-4-4-4-6-6-6-6-6-6-6-6-/-8-8-8-8-8-8-8-8-/-4-4-4-4-4-4-4-4-|
- 4-4-4-4-4-4-4-4-4-4-4-4-4-4-4-4-/-6-6-6-6-6-6-6-6-/-2-2-2-2-2-2-2-2-|
VERSO 1

GTR 1 FIG 2

- ------------------------------------------------------------------------|
- ------------------------------------------------------------------------|
- ------------------------------------------------------------------------|
- ------------------------------------------------------------------------|
- 11-11-11-11-11-11-11-0-6-6-6-6-6-6-6-0-4-4-4-4-4-4-4-4-4-4-4-4-4-4-4-0--|
- -9--9--9--9--9--9--9-0-8-8-8-8-8-8-8-0-6-6-6-6-6-6-6-6-6-6-6-6-6-6-6-0--| X2

GTR 2

PM ................................................................
- ----------------------------------------------------------------|
- ----------------------------------------------------------------|
- ----------------------------------------------------------------|
- ----------------------------------------------------------------|
- ----------------------------------------------------------------|
- 7-7-7-7-7-7-7-7-6-6-6-6-6-6-6/4-4-4-4-4-4-4-4-4-4-4-4-4-4-4-4-0-|

GTR 1

- -----------------------------------------------------------------------|
- -----------------------------------------------------------------------|
- 11-11-11-11-11-11-11-0-6-6-6-6-6-6-6-0-4-4-4-4-4-4-4-0-6-6-6-6-6-6-6-6-|
- -9--9--9--9--9--9--9-0-8-8-8-8-8-8-8-0-6-6-6-6-6-6-6-0-4-4-4-4-4-4-4-4-|
- -----------------------------------------------------------------------|
- -----------------------------------------------------------------------|

GTR 2

PM .................................................................
- -------------------------------------------------------------------|
- -------------------------------------------------------------------|
- ---------------------------------------------------------------4 4-|
- -------------------------------------------------------------------|X X
- ---------------------------------------------------------------2 2-|
- 7-7-7-7-7-7-7-7-6-6-6-6-6-6-6-6/ 4-4-4-4-4-4-4-0-2-2-2-2-2-2-2-2---|


PRE CORO


RIFF A 1

- ----------------------------------------------------------------------|
- --------4-----4----------4-----4----------4------4--------------------|
- ----4-------4---------4------4--------4-------4---------4--------4----|
- ----------------------------------------------------------------------|
- 2-2---2---2------4-4---4---4------------------------------------------|  X2
- ---------------------------------4-4----4---4-------0-0---0-0-0----0--|


CORO RIIF B
[ Tab from: http://www.guitartabs.cc/tabs/b/blink_182/always_tab_ver_11.html ]
- ----------------------------------------------------------------------|
- ----------------------------------------------------------------------|
- --4-4-4-4-4-4-4---8-8-8-8-8-8-8---------------------------------------|
- --4-4-4-4-4-4-4---X-X-X-X-X-X-X---6-6-6-6-6-6-6---2-2-2-2-2-2-2-2-----|
- --2-2-2-2-2-2-2-0-6-6-6-6-6-6-6-0-6-6-6-6-6-6-6-0-2-2-2-2-2-2-2-2-----| X2
- ----------------0---------------0-4-4-4-4-4-4-4-0-0-0-0-0-0-0-0-0-----|


INTERMEDIO RIFF A 1

vERSO 2

RIFF B 2

- ----------------------------------------------------------------------|
- ----------------------------------------------------------------------|
- ----------------------------------------------------------------------|
- ----------------------------------------------------------------------|
- --6---6-4---4-6-------------------------------------------------------| X4
- ----7-----6-----4-2/-4------------------------------------------------|

PRE CORO RIFF A 1 X33

CORO RIFF B X4

INTERMEDIO

GTR 2
RIFF C

- --------------------------------------------------------------------------|
- 4----4----4---4-5--4----4----4---4-5--4---4---4---4-5--4---4-5-4----4-5---|
- --4----4----4--------4----4----4--------4---4---4--------4--------4-------|
- --------------------------------------------------------------------------|
- --------------------------------------------------------------------------|x2
- --------------------------------------------------------------------------|

GTR 1

- ------------------------------------------------------------------------|
- ------------------------------------------------------------------------|
- ------------------------------------------------------------------------|x2
- 4-4-4-4-4-4-4-4-/-6-6-6-6-6-6-6-6-/-4-4-4-4-4-4-4-4-4-/-8-8-8-8-/-4-4-4-|
- X-X-X-X-X-X-X-X---X-X-X-X-X-X-X-X---X-X-X-X-X-X-X-X-X---X-X-X-X---X-X-X-|
- 2-2-2-2-2-2-2-2-/-4-4-4-4-4-4-4-4-/-2-2-2-2-2-2-2-2-2-/-6-6-6-6-/-2-2-2-|


- -------------------------------------------------------------------------|
- -------------------------------------------------------------------------|
- ---8----8-/-6---6-/--4----4-/-6-/-8----8-/-6---6-------------------------|
- ---------------------x----x----------------------------------------------|
- ---6----6-/-4---4-/--2----2-/-4-/-6----6-/-4---4-------------------------|
- -------------------------------------------------------------------------|

gtr 2 riff c x2


gtr 1

- --------------------------------------------------------------------------|
- --------------------------------------------------------------------------|
- 4-4-4-4--4-4---4-4-4-4--4-4---4-4-4-4--4-4---4-4-4-4--4-4--4-4-4--4-4-4---|
- x-x-x-x--x-x---x-x-x-x--x-x---x-x-x-x--x-x---x-x-x-x--x-x--x-x-x--x-x-x---|
- 2-2-2-2--2-2---2-2-2-2--2-2---2-2-2-2--2-2---2-2-2-2--2-2--2-2-2--2-2-2---|
- --------------------------------------------------------------------------|
                                                        se repite 3 veces

gtr 3


- 11-----11-----11-----12-11-------11------11------11-----12-11---16-14-|
- --14-12--14-12--14-12------12-14---14-12---14-12---14-12-------12-----|
- ----------------------------------------------------------------------|
- ----------------------------------------------------------------------|
- ----------------------------------------------------------------------|
- ----------------------------------------------------------------------|
Comments