Blink 182 - Always Chords & Tabs

 

Always Chords & Tabs

Blink 182 Chords & Tabs

Version: 1 Type: Tab 0 ratings
1 star 2 stars 3 stars 4 stars 5 stars
comments

Always Tab

Always
R~=Let It Ring
~=Few Times
Standard Turning

Intro 

E|--------------------------------------|
B|-4--~----4--~----4--~----4--~---------|
G|-4-------4-------4-------4------------|
D|-X-------X-------X-------2------------|
A|-2-------4-------X-------2------------|
E|-----------------4-------0------------| (X2) 

Verses

E|--------------------------------------|
B|-4-~----4-~----4--~-------------------|
G|-4------4------4----------------------|
D|-X------X------x----------------------|
A|-2------4------x----------------------|
E|---------------4----------------------| 

Pre Chorus
[ Tab from: http://www.guitartabs.cc/tabs/b/blink_182/always_tab.html ]
E|--------------------------------------|
B|-4--~---------------------------------|
G|-4------------------------------------|
D|-4------------------------------------|
A|-2------------------------------------|
E|--------------------------------------| 

Chorus

E|--------------------------------------|
B|--------------------------------------|
G|-4--~--6--~---------------------------|
D|-4-----6-----6-~----2--~--------------|
A|-2-----4-----6------2-----------------|
E|-------------4------0-----------------| 

Awhile After Chrous

E|--------------------------------------|
B|--0--4--0--0--4--0--4-----------------|
G|--------------------------------------|
D|--------------------------------------|
A|--------------------------------------|
E|--------------------------------------| A Few Times With Different Ryhme.

Verse
Pre Chorus
Chorus

Awhile After Second Chours

E|--------------------------------------------------------------|
B|--5h6--5--6--5--6---------------------------------------------|<

Comments