Blink 182 - Always Chords & Tabs

 

Always Chords & Tabs

Blink 182 Chords & Tabs

Version: 4 Type: Bass Tab 0 ratings
1 star 2 stars 3 stars 4 stars 5 stars
comments

Always Bass Tab

from Blink 182
Always
Words and Music by Travis Barker, Tom De Longe and Mark Hoppus
Fast = 158bpm


(Drums for 4 bars)
Intro

|-4-4-4-4-4-4-4-4-|-6-6-6-6-6-6-6-6/|/8-8-8-8-8-8-8-8\|\4-4-4-4-4-4-4-4-|
|-4-4-4-4-4-4-4-4-|-4-4-4-4-4-4-4-4/|/6-6-6-6-6-6-6-6\|\2-2-2-2-2-2-2-2/|
|-----------------|-----------------|-----------------|-----------------|
|-----------------|-----------------|-----------------|-----------------|

|-4-4-4-4-4-4-4-4-|-6-6-6-6-6-6-6-6/|/8-8-8-8-8-8-8-8\|\4-4-4-4-4-4-4-4/|
|/4-4-4-4-4-4-4-4-|-4-4-4-4-4-4-4-4/|/6-6-6-6-6-6-6-6\|\2-2-2-2-2-2-2-2/|
|-----------------|-----------------|-----------------|-----------------|
|-----------------|-----------------|-----------------|-----------------|

Verse

|-11-11-11-11-11-11-11-0-|-6-6-6-6-6-6-6-0-|-4-4-4-4-4-4-4-4-|-4-4-4-4-4-4-4-0-|
|-9--9--9--9--9--9--9--0-|-8-8-8-8-8-8-8-0-|-6-6-6-6-6-6-6-6-|-6-6-6-6-6-6-6-0-|
|------------------------|-----------------|-----------------|-----------------|
|------------------------|-----------------|-----------------|-----------------|

|-11-11-11-11-11-11-11-0-|-6-6-6-6-6-6-6-0-|-4-4-4-4-4-4-4-4-|-4-4-4-4-4-4-4-0-|
|-9--9--9--9--9--9--9--0-|-8-8-8-8-8-8-8-0-|-6-6-6-6-6-6-6-6-|-6-6-6-6-6-6-6-0-|
|------------------------|-----------------|-----------------|-----------------|
|------------------------|-----------------|-----------------|-----------------|

|-11-11-11-11-11-11-11-0-|-6-6-6-6-6-6-6-0-|-4-4-4-4-4-4-4-4-|-4-4-4-4-4-4-4-0-|
|-9--9--9--9--9--9--9--0-|-8-8-8-8-8-8-8-0-|-6-6-6-6-6-6-6-6-|-6-6-6-6-6-6-6-0-|
|------------------------|-----------------|-----------------|-----------------|
|------------------------|-----------------|-----------------|-----------------|

|-11-11-11-11-11-11-11-0-|-6-6-6-6-6-6-6-0-|-4-4-4-4-4-4-4-0-|-6-6-6-6-6-6-6-6-|
|-9--9--9--9--9--9--9--0-|-8-8-8-8-8-8-8-0-|-6-6-6-6-6-6-6-0-|-4-4-4-4-4-4-4-4-|
|------------------------|-----------------|-----------------|-----------------|
|------------------------|-----------------|-----------------|-----------------|

Pre-Chorus

|-----------------|-----------------|-----------------|-----------------|
|-----------------|-----------------|-----------------|-----------------|
|-2-2-2-2-2-2-2-2-|-4-4-4-4-4-4-4-4-|-----------------|-----------------|
|-----------------|-----------------|-4-4-4-4-4-4-4-4-|-0-0-0-0-0-0-0-0-|

|-----------------|-----------------|-----------------|-----------------|
|-----------------|-----------------|-----------------|-----------------|
|-2-2-2-2-2-2-2-2-|-4-4-4-4-4-4-4-4-|-----------------|-----------------|
|-----------------|-----------------|-4-4-4-4-4-4-4-4-|-0-0-0-0-0-0-0-0-|

Chorus
[ Tab from: http://www.guitartabs.cc/tabs/b/blink_182/always_btab_ver_4.html ]
|-----------------|-----------------|-----------------|-----------------|
|-----------------|-----------------|-----------------|-----------------|
|-2-2-2-2-2-2-2---|-6-6-6-6-6-6-6---|-----------------|-----------------|
|---------------0-|---------------0-|-4-4-4-4-4-4-4-0-|-0-0-0-0-0-0-0-0-|

|-----------------|-----------------|-----------------|-----------------|
|-----------------|-----------------|-----------------|-----------------|
|-2-2-2-2-2-2-2---|-6-6-6-6-6-6-6---|-----------------|-----------------|
|---------------0-|---------------0-|-4-4-4-4-4-4-4-0-|-0-0-0-0-0-0-0-0-|

Verse 2

|-----------------|-----------------|-----------------|-----------------|
|-----------------|-----------------|-----------------|-----------------|
|--6----------6---|--4----------4---|--6--------------|-----------------|
|-------7---------|-------6---------|-------4------2//|/4---------------|

|-----------------|-----------------|-----------------|-----------------|
|-----------------|-----------------|-----------------|-----------------|
|--6----------6---|--4----------4---|--6--------------|-----------------|
|-------7---------|-------6---------|-------4------2//|/4---------------|

|-----------------|-----------------|-----------------|-----------------|
|-----------------|-----------------|-----------------|-----------------|
|--6----------6---|--4----------4---|--6--------------|-----------------|
|-------7---------|-------6---------|-------4------2//|/4---------------|

|-----------------|-----------------|-----------------|-----------------|
|-----------------|-----------------|-----------------|-----------------|
|--6----------6---|--4----------4---|--6--------------|-----------------|
|-------7---------|-------6---------|-------4------2//|/4---------------|

Interlude

|-----------------|-----------------|-----------------|-----------------|
|-----------------|-----------------|-----------------|-----------------|
|-2-2-2-2-2-2-2-2/|/4-4-4-4-4-4-4-4\|\2-2-2-2-2-2-2-2-|-2/6-6-6-6\2-2-2-|
|-----------------|-----------------|-----------------|-----------------|

|-----------------|-----------------|-----------------|-----------------|
|-----------------|-----------------|-----------------|-----------------|
|-2-2-2-2-2-2-2-2/|/4-4-4-4-4-4-4-4\|\2-2-2-2-2-2-2-2-|-2/6-6-6-6\2-2-2-|
|-----------------|-----------------|-----------------|-----------------|

Outro

|-----------------|-----------------|-----------------|-----------------|
|-----------------|-----------------|-----------------|-----------------|
|-----------------|-----------------|-----------------|-----------------|
|-2-2-2-2-2-2-2-2-|-2-2-2-2-2-2-2-2/|/4-4-4-4-4-4-4-4\|\0-0-0-0-0-0-0-0/|

End Note
|-----------------|-----------------|
|-----------------|-----------------|
|-2~~~~~~~~~~~~~~~|~-~--------------|
|-----------------|-----------------|


Intro
Verse
Pre-Chorus
Chorus
Intro
Verse 2
Pre-Chorus  x2
Chorus  x2
Interlude
Intro
-Pause-
Chorus  x2
Outro  x4
End Note
Comments