Blink 182 - Always Chords & Tabs

 

Always Chords & Tabs

Blink 182 Chords & Tabs

Version: 1 Type: Bass Tab 0 ratings
1 star 2 stars 3 stars 4 stars 5 stars
comments

Always Bass Tab

   
Always
Artist: Blink 182
Album: Blink 182
Tab By: atawb 
Tuning (E A D G B E)


Pre Chorus
G|--------------------------------------------------------------------|
D|--------------------------------------------------------------------|
A|------------------4-4-4-4-4-4-4-4--2-2-2-2-2-2-2-2------------------|
E|-2-2-2-2-2-2-2-2------------------------------------0-0-0-0-0-0-0-0-|
[ Tab from: http://www.guitartabs.cc/tabs/b/blink_182/always_btab.html ]
Chorus                                
G|--------------------------------------------------------------------|
D|--------------------------------------------------------------------|
A|------------------4-4-4-4-4-4-4-4--6-6-6-6-6-6-6-6--2-2-2-2-2-2-2-2-|
E|-2-2-2-2-2-2-2-2----------------------------------------------------|

Verse                                               x2  Ending 1          Ending 2     
G|----------------------------------------------------|-----------------|-----------------|
D|----------------------------------------------------|-----------------|-----------------|
A|------------------4-4-4-4-4-4-4-4--2-2-2-2-2-2-2-2--|-2-2-2-2-2-2-2-2-|-----------------|
E|-2-2-2-2-2-2-2-2------------------------------------|-----------------|-0-0-0-0-0-0-0-0-|

Order:

Verse 
Pre Chorus x2
Chorus x4
Verse x2
Pre Chorus x2
Chorus x4
Pre Chorus x2
Chorus x4
Comments