Blink 182 - Alone Chords & Tabs

 

Alone Chords & Tabs

Blink 182 Chords & Tabs

Version: 3 Type: Tab 0 ratings
1 star 2 stars 3 stars 4 stars 5 stars
comments

Alone Tab

Alone
Blink 182
From Flyswatter
Tabbed by SJ (kirei_008@hotmail.com)


Intro:
 Repeat ×6
--------------------------------------
--------------------------------------
--------------------------------------
-----2--3--2--0-------5--3--2---------
--0----------------3------------------
--------------------------------------

 Then play:
--------------------------------------
--------------------------------------
--------------------------------------
-----2--3--2--0---------5--3--2-3-2---
--0----------------3-3----------------
--------------------------------------

 Repeat×3
--------------------------------------
--------------------------------------
--------------------------------------
-----2--3--2--0-------5--3--2---------
--0----------------3------------------
--------------------------------------

 Then play:

--------------------------------------
--------------------------------------
--------------------------------------
-----2--3--2--0---------5-5--3-3--22--
--0----------------3-3----------------
--------------------------------------

Verse:

----------------------------------------------------------------------
----------------------------------------------------------------------
----------------------------------------------------------------------
--555555555555555-------------------555555555555555-------------------
--333333333333333--777777777777777--333333333333333--777777777777777--
-------------------555555555555555-------------------555555555555555--

Chorus:
Boxed notes should be played more then once. Listen to the song
to get the strum right.
----------------------------------------------------------------------
----------------------------------------------------------------------
----------------------------------------------------------------------
--[5]-[10]--[12]---------------[10]--[12]-----------------------------
--[3]--[8]--[10]--[12]--[10]---[8]---[10]--[12]-----------------------
------------------[10]---[8]---------------[10]-----------------------
[ Tab from: http://www.guitartabs.cc/tabs/b/blink_182/alone_tab_ver_3.html ]
----------------------------------------------------------------------
----------------------------------------------------------------------
----------------------------------------------------------------------
------------999999999--1010101010101010-------------------------------
--77777777--777777777---8-8-8-8-8-8-8-8--1010101010101010-------------
--55555555--------------------------------8-8-8-8-8-8-8-8-------------

----------------------------------------------------------------------
----------------------------------------------------------------------
----------------------------------------------------------------------
------------999999999--1010101010101010-------------------------------
--77777777--777777777---8-8-8-8-8-8-8-8--1010101010101010-------------
--55555555--------------------------------8-8-8-8-8-8-8-8-------------

----------------------------------------------------------------------
----------------------------------------------------------------------
----------------------------------------------------------------------
------------999999999--1010101010101010-------------------------------
--77777777--777777777---8-8-8-8-8-8-8-8--1010101010101010-------------
--55555555--------------------------------8-8-8-8-8-8-8-8-------------

----------------------------------------------------------------------
----------------------------------------------------------------------
----------------------------------------------------------------------
------------999999999--1010101010101010-------------------------------
--77777777--777777777---8-8-8-8-8-8-8-8--1010101010101010-------------
--55555555--------------------------------8-8-8-8-8-8-8-8-------------

After Chorus/ Before Verse:

Repeat×3
--------------------------------------
--------------------------------------
--------------------------------------
-----2--3--2--0-------5--3--2---------
--0----------------3------------------
--------------------------------------

 Then play:

--------------------------------------
--------------------------------------
--------------------------------------
-----2--3--2--0---------5-5--3-3--22--
--0----------------3-3----------------
--------------------------------------


Last Intro Riff:

 Repeat×2
--------------------------------------
--------------------------------------
--------------------------------------
-----2--3--2--0-------5--3--2---------
--0----------------3------------------
--------------------------------------


End on: 
-----        -----
-----        -----
-----        -----
-----	or   --5--
-10--        --3--
--8--        -----

Song Layout:
Intro
Verse
Chorus
After Chorus/ Before Verse
Verse 
Chorus
Last Intro Riff
Chorus
Comments