Blink 182 - All The Small Things Chords & Tabs

 

All The Small Things Chords & Tabs

Blink 182 Chords & Tabs

Version: 7 Type: Tab 0 ratings
1 star 2 stars 3 stars 4 stars 5 stars
comments

All The Small Things Tab

   
Blink 182, All the Small Things.
Tabbed by Ryan, Wetwilly357.
  
E|---------|
B|---------|
G|-5-3-----|
D|-5-3-----|
A|-3-1-----|
E|---------|

E|---------------------------------------|2
B|----------66666666---------------------|T
G|-55555555-55555555---------------------|I
D|-55555555-33333333-55555555------333---|M
A|-33333333----------55555555-0000-333---|E
E|-------------------33333333------111---|S
                              P.M.
E|--------------------------------------|4|------
B|--------------------------------------|T|------
G|--------------------------------------|I|-5----
D|--------------------------------------|M|-5----hold
A|-33333333-----------------------------|E|-3----
E|----------33333333-11111111-33333333--|S|------

E|-------------------------------------|2
B|-------------------------------------|T
G|-5555555555555555--------------------|I
D|-5555555555555555-55555555-33333333--|M
A|-3333333333333333-55555555-33333333--|E
E|------------------33333333-11111111--|S

E|----------------------------------------------|2
B|----------------------------------------------|T
G|-55555555-11111111-10101010-77777777----------|I
D|-55555555-11111111-10101010-77777777------333-|M
A|-33333333--9-9-9-9--8-8-8-8-55555555-0000-333-|E
E|-------------------------------------P.M.-111-|S

E|--------------------------------------|2|----
B|--------------------------------------|T|----
G|--------------------------------------|I|-5--
D|--------------------------------------|M|-5--hold
A|-33333333-----------------------------|E|-3--
E|----------33333333-11111111-33333333--|S|----
[ Tab from: http://www.guitartabs.cc/tabs/b/blink_182/all_the_small_things_tab_ver_7.html ]
E|--------------------------------------|2
B|--------------------------------------|T
G|-5555555555555555---------------------|I
D|-5555555555555555-55555555-33333333---|M
A|-3333333333333333-55555555-33333333---|E
E|------------------33333333-11111111---|S

guitar 1 (listen to the song) 
E|-------------------------------------|4
B|-5-----------------------------------|T
G|-5-------------------5------------7--|I
D|-5-------------------5------------7--|M
A|-3-------------------3------------5--|E
E|-------------------------------------|S

guitar 2 (listen to the song)
E|--------------------------------------------------|
B|--------------------------------------------------|
G|-5-5-5-5-5-5-5-5-5-5-5-5-5-5-5-5-5-5-5-5-5-5-5-5-5|
D|--5-5-5-5-5-5-5-5-5-5-5-5-5-5-5-5-5-5-5-5-5-5-5-5-|
A|--------------------------------------------------|
E|--------------------------------------------------|

E|------------------------------------|2
B|------------------------------------|T
G|-5555555555555555-------------------|I
D|-5555555555555555-55555555-33333333-|M
A|-3333333333333333-55555555-33333333-|E
E|------------------33333333-11111111-|S

E|---------------------------------------|1
B|---------------------------------------|T
G|-5555555555555555----------------------|I
D|-5555555555555555-55555555-----3-----3-|M
A|-3333333333333333-55555555-----3-----3-|E
E|------------------33333333-1-1-1-1-1-1-|

E|---------------------------------------------------|
B|---------------------------------------------------|
G|-5555555555555555----------------------------------|
D|-5555555555555555-55555555-----3-----3-----3-----3-|
A|-3333333333333333-55555555-----3-----3-----3-----3-|
E|------------------33333333-1-1-1-1-1-1-1-1-1-1-1-1-|

E|----|
B|----|
G|-5--|
D|-5--|
A|-3--|
E|----| 
:: Ultimate Guitar Archive :: 
http://www.ultimate-guitar.com 

Comments