Blink 182 - All The Small Things Chords & Tabs

 

All The Small Things Chords & Tabs

Blink 182 Chords & Tabs

Version: 6 Type: Tab 0 ratings
1 star 2 stars 3 stars 4 stars 5 stars
comments

All The Small Things Tab

Blink 182 All The Small Things .
Tabbed by Jordan Barss www.jordanbarss@hotmail.com.
  
BLINK 182     ALL THE SMALL THINGS 
 
INTRO: play 2 times (don't repeat first two chords) 
E----------------------------------------------------------------------------------------------------- 
B----------------------------------------------------------------------------------------------------- 
G------------------------------------5--5--5--5--5--5--5--5--------------------------------------- 
D---------5--5--5--5--5--5--5--5--3--3--3--3--3--3--3--3--------------------------------------- 
A--7--5--3--3--3--3--3--3--3--3-----------------------------5--5--5--5--5--5--5--5--5--3--3--- 
E--5--3--------------------------------------------------------3--3--3--3--3--3--3--3--3--1--1--- 

VERSE: play 4 times 
E------------------------------------------------------------------------------------------------------------ 
B------------------------------------------------------------------------------------------------------------ 
G------------------------------------------------------------------------------------------------------------ 
D--5--5--5--5--5--5--5--5---------------------------------------------------------------------------------- 
A--3--3--3--3--3--3--3--3--5--5--5--5--5--5--5--5--3--3--3--3--3--3--3--3--5--5--5--5--5--5--5--5-- 
E-----------------------------3--3--3--3--3--3--3--3--1--1--1--1--1--1--1--1--3--3--3--3--3--3--3--3-- 

PRE-CHORUS: let ring 
E------------------ 
B------------------ 
G------------------ 
D--5-------------- 
A--3-------------- 
E------------------ 

CHORUS: (na na na na na na na) play 2 times 
E------------------------------------------------------------------------ 
B------------------------------------------------------------------------ 
G-------------------------------------------------------------------------- 
D--5--5--5--5--5--5--5--5--5--5---------------------------------------- 
A--3--3--3--3--3--3--3--3--3--3--5--5--5--5--5--3--3--3--3--3------- 
E -----------------------------------3--3--3--3--3--1--1--1--1--1------ 

BEFORE SECOND VERSE: play 2 times 
E--------------------------------------------------------------------------------------------- 
B-----------------------------5--5--5--5--4--4--4--4--2--2--2--2--2--2--2--2--2--------- 
G-----------------------------3--3--3--3--2--2--2--2--0--0--0--0--0--0--0--0--0---------- 
D--5--5--3--5--5--5--5--5------------------------------------------------------------------- 
A--3--3--3--3--3--3--3--3-----------------------------------------------------------3--3------- 
E--------------------------------------------------------------------------------------1--1------- 
[ Tab from: http://www.guitartabs.cc/tabs/b/blink_182/all_the_small_things_tab_ver_6.html ]
VERSE 2: same as the first verses 


BEFORE SOLO: play 1 time let ring 
E-------------------------- 
B------------------------ 
G-----5-------------------- 
D--5--3--------------------- 
A--3-----5------------------ 
E-------- 3----------------- 

SOLO: mute with palm play 4 times 
E----------------------------------------------------------------------------------------------------------- 
B------------------------------------------------------------------------------------------------------------ 
G--5-----5-----5-----5-----5-----5-----5-----5-----5-----5-----5-----5-----4-----4-----4-----4--------- 
D-----5-----5-----5-----5-----5-----5-----5-----5-----5-----5-----5-----5-----5-----5-----5-----5------- 
A------------------------------------------------------------------------------------------------------------ 
E------------------------------------------------------------------------------------------------------------- 

AFTER SOLO: play 2 times 
E------------------------------------------------------------------------------------------------------------------- 
B------------------------------------------------------------------------------------------------------------------ 
G--5--5--5--5--5--5--5--5--5--5--5--5--5--5--5--5--5--5--5--5--5--5--5--5--4--4--4--4--4--4--4--4------
D--5--5--5--5--5--5--5--5--5--5--5--5--5--5--5--5--5--5--5--5--5--5--5--5--5--5--5--5--5--5--5--5------
A------------------------------------------------------------------------------------------------------------------- 
E------------------------------------------------------------------------------------------------------------------- 
AFTER THAT IS THE SAME AS THE CHORUS AND THEN YOU DONE 

Note: this is the enema of the state version, on their live album the solo is a little bit different it goes like this 

LIVE SOLO: repeat 4 times 
E-------------------------------------------------- 
B------------------------------------------------- 
G--5-----5-----5-----5-----4-----4-----7-----7-------------- 
D-----5-----5-----5-----5-----5-----5-----5-----5----------- 
A--------------------------------------------------- 
E---------------------------------------------------- 

AFTER SOLO (live) 
E------------------------------------------------------------------- 
B------------------------------------------------------------------ 
G--5--5--5--5--5--5--5--5--4--4--4--4--7--7--7--7------------- 
D--5--5--5--5--5--5--5--5--5--5--5--5--5--5--5--5-------------- 
A-------------------------------------------------------------------- 
E--------------------------------------------------------------------- 

Tab by Jordan Barss N.S.  
:: Ultimate Guitar Archive :: 
http://www.ultimate-guitar.com 

Comments