Blink 182 - All The Small Things Chords & Tabs

 

All The Small Things Chords & Tabs

Blink 182 Chords & Tabs

Version: 4 Type: Tab 4 ratings
1 star 2 stars 3 stars 4 stars 5 stars
comments

All The Small Things Tab

I gave this site a quick look through eariler for this song and found a ratting of 10 for it... 
now that's brill but when i tried it, it was a bit difficult so i came up with the same sounding just
different places on the guitar and made it a whole lot eaiser!!! It is possible u can strum all the strings
i just didnt wanna waste time and put in all the 0's lol!

if you have any comments plase ask me at any time at exathon@hotmail.com and i will be happy to help you.


 


intro:

e ---------------------------------------------------------------------------------------------
b ---------------------------------------------------------------------------------------------
g -----------------------------------10-10-10-10-10-10-10-10-----------------------------------  
d --------10-10-10-10-10-10-10-10----10-10-10-10-10-10-10-10---5-5-5-5-5-5-5-5-5-x-x-x---3-3-3-    x 2
a --------10-10-10-10-10-10-10-10----8--8--8--8--8--8--8--8----5-5-5-5-5-5-5-5-5-x-x-x---3-3-3-
e --------8--8--8--8--8--8--8--8-------------------------------3-3-3-3-3-3-3-3-3-x-x-x---1-1-1-



verse:

pm ( at the end of the verse strum down three times on the top 3 strings with the tab ) (8 + 10 )

e --------------------------------------------------------------------------------------
b --------------------------------------------------------------------------------------
g --------------------------------------------------------------------------------------
d --------------------------------------------------------------------------------------   x 4 
a --------10-10-10-10-10-10-10-10---5-5-5-5-5-5-5-5---3-3-3-3-3-3-3-3---1-1-1-1-1-1-1-1-
e --------8--8--8--8--8--8--8--8----3-3-3-3-3-3-3-3---1-1-1-1-1-1-1-1---3-3-3-3-3-3-3-3-



chorus: 

e --------------------------------------------------------------------------------------------
b --------------------------------------------------------------------------------------------
g --------------------------------------------------------------------------------------------
d --------------------------------------------------------------------------------------------  x 2
a --------10-10-10-10-10-10-10-10-10-10-10-10-10-10-10-10---5-5-5-5-5-5-5-5---3-3-3-3-3-3-3-3-
e --------8--8--8--8--8--8--8--8--8--8--8--8--8--8--8--8----3-3-3-3-3-3-3-3---1-1-1-1-1-1-1-1-



pre chorus: 

e -------------------------------------------------------------------
b -------------------------------------------------------------------
g --------5-5-5-5-5-5-5-5---10-10-9-9-7--7-7-7-7-7-7-7-7-x-x-x-5-5-5-
d --------5-5-5-5-5-5-5-5---10-10-9-9-7--7-7-7-7-7-7-7-7-x-x-x-5-5-5-   x 2     
a --------3-3-3-3-3-3-3-3---8--8--7-7-5--5-5-5-5-5-5-5-5-x-x-x-3-3-3-
e -------------------------------------------------------------------


[ Tab from: http://www.guitartabs.cc/tabs/b/blink_182/all_the_small_things_tab_ver_4.html ]
verse: 

pm ( at the end of the verse strum down three times on the top 3 strings with the tab ) (8 + 10 )

e --------------------------------------------------------------------------------------
b --------------------------------------------------------------------------------------
g --------------------------------------------------------------------------------------
d --------------------------------------------------------------------------------------   x 4
a --------10-10-10-10-10-10-10-10---5-5-5-5-5-5-5-5---3-3-3-3-3-3-3-3---1-1-1-1-1-1-1-1-
e --------8--8--8--8--8--8--8--8----3-3-3-3-3-3-3-3---1-1-1-1-1-1-1-1---3-3-3-3-3-3-3-3-



chorus:

e --------------------------------------------------------------------------------------------
b --------------------------------------------------------------------------------------------
g --------------------------------------------------------------------------------------------
d --------------------------------------------------------------------------------------------  x 2
a --------10-10-10-10-10-10-10-10-10-10-10-10-10-10-10-10---5-5-5-5-5-5-5-5---3-3-3-3-3-3-3-3-
e --------8--8--8--8--8--8--8--8--8--8--8--8--8--8--8--8----3-3-3-3-3-3-3-3---1-1-1-1-1-1-1-1-



pre chorus:
 
e -------------------------------------------------------------------
b -------------------------------------------------------------------
g --------5-5-5-5-5-5-5-5---10-10-9-9-7--7-7-7-7-7-7-7-7-x-x-x-5-5-5-
d --------5-5-5-5-5-5-5-5---10-10-9-9-7--7-7-7-7-7-7-7-7-x-x-x-5-5-5-   x 2     
a --------3-3-3-3-3-3-3-3---8--8--7-7-5--5-5-5-5-5-5-5-5-x-x-x-3-3-3-
e -------------------------------------------------------------------



solo:

e -------5-5-5-5-5-5-5-5-5-5-5-5-5-4-4-4-4--
b --------5-5-5-5-5-5-5-5-5-5-5-5-5-4-4-4-4-
g ------------------------------------------
d ------------------------------------------   x 4
a ------------------------------------------
e ------------------------------------------


outro:

( once you have repeated it 4 times strum it twice really fast 4 times and then hold the note 
  for a while.)

e --------------------------------------------------------------------------------------------
b --------------------------------------------------------------------------------------------
g --------------------------------------------------------------------------------------------
d --------10-10-10-10-10-10-10-10-10-10-10-10-10-10-10-10---5-5-5-5-5-5-5-5---3-3-3-3-3-3-3-3-   x 4
a --------10-10-10-10-10-10-10-10-10-10-10-10-10-10-10-10---5-5-5-5-5-5-5-5---3-3-3-3-3-3-3-3-
e --------8--8--8--8--8--8--8--8--8--8--8--8--8--8--8--8----3-3-3-3-3-3-3-3---1-1-1-1-1-1-1-1-


PLEASE NOTE!:  iam only 14 so my way of describing may be a little rubbish lol






Comments