Blink 182 - All The Small Things Chords & Tabs

 

All The Small Things Chords & Tabs

Blink 182 Chords & Tabs

Version: 3 Type: Tab 2 ratings
1 star 2 stars 3 stars 4 stars 5 stars
comments

All The Small Things Tab

x= mute
num+x= palm mute eg. 
-5x----
-5x---- (palm mute)
-3x----

intro:-
E|------------------------------------------------------
B|------------------66666666----------------------------
G|--------555555555-55555555----------------------------
D|---5-3--555555555-33333333---555555555-xxxx-33-------- X2 
A|---5-3--333333333------------555555555-xxxx-33--------
E|---3-1-----------------------333333333-xxxx-11-------- 

Verse 
E|----------------------------------------------------------
B|----------------------------------------------------------
G|-5x5x5---5x5x5--------------------------------------------
D|-5x5x5---5x5x5---5x5x5-5x5x5--3x3x3---3x3x3--5x5x5-5x5x5-- x4
A|-3x3x3---3x3x3---5x5x5-5x5x5--3x3x3---3x3x3--5x5x5-5x5x5--
E|-----------------3x3x3-3x3x3--1x1x1---1x1x1--3x3x3-3x3x3--

pre chorus 
E|------
B|------
G|--5---
D|--5---
A|--3---
E|------

Chorus
E|----------------------------------------
B|----------------------------------------
G|---5555555555555------------------------ 
D|---5555555555555-55555555--33333333----- X2
A|---3333333333333-55555555--33333333-----
E|-----------------33333333--11111111-----

pre verse
E|----------------------------------------
B|----------6666-5555---------------------
G|-55555555-5555-5555---------------------
D|-55555555-3333-3333-55555555--xxxxx-33--
A|-33333333-----------555555555-xxxxx-33--
E|--------------------333333333-xxxxx-11-- 
[ Tab from: http://www.guitartabs.cc/tabs/b/blink_182/all_the_small_things_tab_ver_3.html ]
Verse 
E|----------------------------------------------------------
B|----------------------------------------------------------
G|-5x5x5---5x5x5--------------------------------------------
D|-5x5x5---5x5x5---5x5x5-5x5x5--3x3x3---3x3x3--5x5x5-5x5x5-- x4
A|-3x3x3---3x3x3---5x5x5-5x5x5--3x3x3---3x3x3--5x5x5-5x5x5--
E|-----------------3x3x3-3x3x3--1x1x1---1x1x1--3x3x3-3x3x3--

pre chorus 
E|------
B|------
G|--5---
D|--5---
A|--3---
E|------

Chorus
E|----------------------------------------
B|----------------------------------------
G|---5555555555555------------------------ 
D|---5555555555555-55555555--33333333----- X2
A|---3333333333333-55555555--33333333-----
E|-----------------33333333--11111111-----

solo 

E||-------------------
B|--------------------
G|--5----6--5----5---- x4
D|--5----5--5----5----  
A|--3------------3----
E|--------------------

Chorus
E|----------------------------------------
B|----------------------------------------
G|---5555555555555------------------------ 
D|---5555555555555-55555555--33333333----- X2
A|---3333333333333-55555555--33333333-----
E|-----------------33333333--11111111-----

end

E|--------------------------------------
B|--------------------------------------
G|---5555555555555----------------------
D|---5555555555555-55555555--xx-3-xx-1-- X2
A|---3333333333333-55555555--xx-3-xx-1--
E|-----------------33333333--xx-1-xx-1--

E|-----------------------------
B|-----------------------------
G|--------------------------5--
D|-----xx-3-xx-1-xx-3-xx-3--5-- 
A|-----xx-3-xx-1-xx-3-xx-3--3--
E|-----xx-1-xx-1-xx-1-xx-1-----
Comments